PrimaNota.ru - самый крупный в мире бесплатный архив песенных текстов, аккордов, табулатур и нот


Mr.Children - Memento Mori - аккорды и текст, видео

Регистрация Запомнить меня
Войти через:  Facebook Google Twitter Vk Yandex Mail.ru

Mr.Children - Memento Mori - аккорды и текст, видео

Печатать
Просмотров: 133
Уроки эстрадного вокала в Санкт-Петербурге
Memento Mori
Mr.Children
Mr. Children
Memento Mori
Submitted by: paramore_fans@yahoo.com

Tuning: Standard EADGBe

Chords used:
Dm7 - xx0211
Am -  x02210
Bb9 - x13311
C -   x32013
F -   133211
Gm -  355333
A -   x02220


Intro: Dm7-Am (x2)


Verse 1:
Dm7 Am  Dm7 Am    Bb9      C
tameiki iro-shita kayoinareta michi
Dm7 Am  Dm7  Am   Bb9      C
hitokomino nakehe suikomareteku
Bb9   F   C           Dm7 Bb9   F        C
  kietteta chiisana yumewo nantonakune kazoete


Verse 2:
Dm7   Am    Dm7   Am        Bb9        C
dounendaino yuujintachiga kazokuwo kizuiteku
Dm7   Am    Dm7 Am       Bb9      C
jinseikanwa samazama sou daremoga shitteru
Bb9   F      C            Dm7 Bb9 F       C
  kanashimiwo mata yasashisani kaenagara ikiteku


Chorus:
  F    C       Dm7  Bb9   F       Bb9    C
makenaiyouni karenaiyouni waratte saku hana ni narou 
  F    C       Dm7 Bb9        Gm              Bb9     C
futo jibunni mayou tokiwa kazewo atsumete sorani hanatsuyo ima


(Repeat Intro 4x)


Verse 3:
Dm7  Am    Dm7   Am     Bb9     C
reiaikanya kanjouronde aiwa katarenai
  Dm7 Am    Dm7  Am      Bb9      C
kono omoiga kienuyouni sootto inoru dake
Bb9   F      C        Dm7 Bb9    F       C  
  amaenuyouni yorisouyouni kodokuwo wakeauyouni


Chorus 2:
F      C     Dm7  Bb9   F     Bb9 C
toushindaino jibundatte kitto ai  serukara
  F   C       Dm7 Bb9       Gm              Bb9     C
saidaigenno yume egakuyo tatoe mudadato hitoga warattemo iiya 


Interlude:
e|--------------------
B|--------------------
G|-10\7/10\7/12\10/12-
D|-10\7/10\7/12\10/12- (x4)
A|--8\5/-8\5/10\-8/10-
E|--------------------


Bridge:
Gm                                      (repeat Interlude once)
yagate subetega chiriyuku sadame de attemo 
Gm                                         A
wakatterundayo tashou risuku wo syottemo teni shitai  ai  ai


Interlude 2: Verse chords Dm7-Am-Dm7-Am-Bb9--C-- (x2)

Guitar 2:
e|----------------------------------------------
B|-6/10-10--10--10--10--8-6-8---------5--6------
G|-----------------------------7-5-7--------7/5-
D|----------------------------------------------
A|----------------------------------------------
E|----------------------------------------------
then-
e|-------10-----------12----------8-8h10p8------------------13-
B|-6/10-----10--6/10------10--10-----------11--10-11-13-13-----
G|-------------------------------------------------------------
D|-------------------------------------------------------------
A|-------------------------------------------------------------
E|-------------------------------------------------------------
then
e|-12-----12h13p12-
B|----13-----------
G|-----------------
D|-----------------
A|-----------------
E|-----------------


(Repeat Chorus 1 except last word)

   F     C     Dm7   Bb9     Gm
la la la la la la la la la kokorono nakan ni
    Bb9    C         F-C-Dm7-Bb-F-C-Bb9-F(hold)
towanaru hana wo sakasou sakasou

http://www.mrchildren.jp/
Добавлено: 26.03.2016
Другие материалы по этой песне:
  • Аккорды и текст

Страница создана 26.03.2016
http://primanota.ru/mrchildren/memento-mori-chords.htm
Привет, Гость.
Предлагаем пройти революционный курс по гитаре.
Подарок от PrimaNota.Ru, забирай!