PrimaNota.ru - самый крупный в мире бесплатный архив песенных текстов, аккордов, табулатур и нот


Mr Children - Tomorrow Never Knows - таба, видео

Регистрация Запомнить меня
Войти через:  Facebook Google Twitter Vk Yandex Mail.ru

Mr Children - Tomorrow Never Knows - таба, видео

Печатать
Просмотров: 93
Genre: Japanese Pop-Rock
Primary Tab: Guitar
Instruments Included: keyboards, saxophone, some bass, some drums.

"Tomorrow Never Knows" was a #1 single in 1994 for the Japanese band Mr. Children.
They released a remix in 1997. The song was used as a theme for a Japanese dramatic
television program, and it won many awards including 'Best Theme Song' at the
Annual Television Drama Academy Awards. In 2006 the song was voted by fans in
Japan as the country's #1 all-time favourite song.

Look for this gem of a Japanese pop song on YouTube.
NOTE: This song has been performed and recorded in different keys.

This tab is in the key of E.
There is a key change at the third chorus, up one full step.

Mr. Children band are:
Kazutoshi Sakurai – vocals, guitar 
Kenichi Tahara – guitar 
Keisuke Nakagawa – bass 
Hideya Suzuki – drums
 
Produced by Kobayashi Takeshi

Transcribed by Keith Fleetwood
For Londa, and my friend Kaori.
http://profile.ultimate-guitar.com/kfleetwood
http://www.myspace.com/kfleetwood
http://www.youtube.com/kfleetwood

NOTE: I speak very little Japanese, so the syllables of the lyrics represent
a propinquity to the actual Altaic language, and the apparent vocalization,
however they are not nor should they be considered accurate transcriptions
of the actual Japanese words. I appologize for any inadvertant words, ideas,
sentiments or phrases not intended in the original lyric. This Japanese
language transcript should be accurate to a near enough degree to assist
any English-speakers or others, but I welcome any language corrections,
interpretations or translations.

NOTE: See bottom of this page for usage keys.
_____________________________________________________________________________________
=====================================================================================

Tomorrow Never Knows - Mr. Children (Words & Music by Kazutoshi Sakurai)

  | = 110
  •

[Intro Interlude]
[Piano, Glockenspiel, Ac. Guitar]
                                __    __             __    __
     |   |   |   |      |      |  |  |  |    |      |  |  |  |    |   |   |   |
     •   •   •   •      o      •  •  •  •    o      •  •  •  •    •   •   •   •
e-|------------------|--------------------|--------------------|------------------|
B-|------4-------7---|--5------4--2-------|--2-----------------|--------------4---|
G-|--4-------6-------|---------------4--3-|---------4--3-----3-|--4-------4-------|
D-|------------------|--------------------|---------------6----|------4-----------|
A-|--2---------------|--------------------|--------------------|--6---------------|
E-|----------6-------|--4------2----------|--1------0----------|------------------|
  |  o       o          o      o             o      o             O               |
  |  |       |          |      |             |      |                             |
  |                                                                               |
  | [DRUMS]                                                                       |
k.|--x-------------x----x--------------------x---------------x----x---------------|
    [Light 8th note hi-hat]



e-|------4---6-------|--4-----------------|--------------------|------------------|
B-|--5-----------7---|---------7--5--4----|--5------4--2-----2-|------------------|
G-|------------------|------------------6-|---------------4----|--6---------------|
D-|--6-------4-------|--2-----------------|--------------------|------------------|
A-|------------------|---------6----------|--4------2----------|--0---------------|
E-|------------------|--------------------|--------------------|------------------|
  |                                                                               |
  |                                                                               |
  |--x-------------x----x--------------------x---------------x----x---------------|



[Pre-Verse]
                             EM7      F#                F#6      G#m7
                             |        |~  |             |        |
                             •.       •___o             •.       •    
e-|---------------------||---------------------------|----------------------------|
B-|---------------------||---4--------2--------------|--------------------7-------|
G-|-(6)--------------4--||---4--------3--------------|--6--------4-----------4----|
D-|------------4--6-----||---6--------4--------------|--8--------4-----4----------|
A-|-(0)-----------------||---7--------4--------------|--6--------6----------------|
E-|---------------------||------------2--------------|-----------4----------------|
               .  /  .  ||   /  .  /  .  /  .  /  .     /  .  /  .  /  .  /  .    |
                        ||                                                        |
                     rm.||---------------------x-----|--------------------x-------|
                      k.||---x--------x--------------|--x--------x----------------| sim.
                           [Mellow drums with rim cross stick on 4]


     EM7      F#             F#6     G#m7
     |        |~  |          |~ |~ |~ |     |~ |~ |~
     •.       •___o          •  •  •  •     •  •  •
e-|-----------------------|-----6---------------------||
B-|-----------------------|--------9--------------7---||
G-|--8--------6-----------|--6--------4--------4------||
D-|--9--------8-----------|--8--------4-----6---------||
A-|--7--------6-----------|--6--------6---------------||
E-|-----------------------|-----------4---------------||
     /  .  /  .  /  .  /  .  /  .  /  .  /  .  /  .



[Verse 1]
      EM7      F#                         G#m
e-||--------------------------|---------------------------|
B-||-----------2--------------|---------------------------|
G-||--8--------3--------3-----|--6--------4-----------4---|
D-||--9--------4--------4-----|--8--------6-----4--6------|
A-||--7--------3--------3-----|--9--------6---------------|
E-||-----------2--------2-----|-----------4---------------|
  ||  /  .  /  .  /  .  /  .     /  .  /  .  /  .  /  .   |
  ||                                                      |
  ||    Todo ma      ruku   to - shi  lamah               |
e-||--------------------------|---------------------------|
B-||--------------------------|---------------------------|
G-||-------4--6------3--------|---------------------------|
D-||-----6--------------4--4--|----4--6--6----------------|
A-||--------------------------|---------------------------|
E-||--------------------------|---------------------------|
  ||[Vocal Melody]                                        |
  ||                                                      |
e-||--------------------------|---------------------------|
B-||--4-----------------------|---------------------------|
G-||--------------------------|---------------------------|
D-||--------------------------|---------------------------|
A-||--------------------------|---------------------------|
E-||--------------------------|---------------------------|




     EM7      F#                G#m
e-|--------------------------|---------------------------|
B-|-----------2--------------|---------------------------|
G-|--8--------3--------x-----|--4--------4-----------4---|
D-|--9--------4--------x-----|--6--------6-----4--6------|
A-|--7--------3--------x-----|--6--------6---------------|
E-|-----------2--------x-----|--4--------4---------------|
  |  /  .  /  .  /  .  /  .     /  .  /  .  /  .  /  .   |
  |                                                      |
  |    Toqui no      makabe____________   ikutsumoma     |
e-|--------------------------|---------------------------|
B-|--------------------------|---------------------------|
G-|-------4--6------3-----8--|-----------9--8--6--6------|
D-|-----6--------------4-----|-----------------------9---|
A-|--------------------------|---------------------------|
E-|--------------------------|---------------------------|


     EM7      F#                         G#m
e-|--------------------------|---------------------------|
B-|-----------2--------------|---------------------------|
G-|--8--------3--------3-----|--6--------4-----------4---|
D-|--9--------4--------4-----|--8--------6-----4--6------|
A-|--7--------3--------3-----|--9--------6---------------|
E-|-----------2--------2-----|-----------4---------------|
  |  /  .  /  .  /  .  /  .     /  .  /  .  /  .  /  .   |
  |                                                      |
  |     Kutzu mi   yuko mascht -  na mivo                |
e-|--------------------------|---------------------------|
B-|--------------------------|---------------------------|
G-|-------4--6------3--------|---------------------------|
D-|-----6--------------4--4--|----4--6--6----------------|
A-|--------------------------|---------------------------|
E-|--------------------------|---------------------------|


     EM7      F#                G#m
e-|--------------------------|---------------------------||
B-|-----------2--------------|---------------------------||
G-|--8--------3--------------|--4------------------------||
D-|--9--------4--------------|--6------------------------||
A-|--7--------3--------------|--6------------------------||
E-|-----------2--------------|--4------------------------||
  |  /  .  /  .  /  .  /  .     /  .  /  .  /  .  /  .   ||
  |                                                      ||
  |     Naga meh - te  ita                               ||
e-|--------------------------|---------------------------||
B-|--------------------------|---------------------------||
G-|-------4--6------3--------|---------------------------||
D-|-----6--------------4--6--|---------------------------||
A-|--------------------------|---------------------------||
E-|--------------------------|---------------------------||
  |                                                      ||
  |[LEAD OR PIANO FILL]                                  ||
e-|--------------------------|---------------------------||
B-|--------------------------|-----------7-----------7---||
G-|--------------------------|--------------6--4--3---(6)||
D-|--------------------------|---------------------------||
A-|--------------------------|---------------------------||
E-|--------------------------|---------------------------||




[Verse 2:]
      EM7      F#                         G#m
e-||--------------------------|---------------------------|
B-||-----------2--------------|---------------------------|
G-||--8--------3--------3-----|--6--------4-----------4---|
D-||--9--------4--------4-----|--8--------6-----4--6------|
A-||--7--------3--------3-----|--9--------6---------------|
E-||-----------2--------2-----|-----------4---------------|
  ||  /  .  /  .  /  .  /  .     /  .  /  .  /  .  /  .   |
  ||                                                      |
  ||    Ohzam na -  tzu gite       kie - ta               |
e-||--------------------------|---------------------------|
B-||--------------------------|---------------------------|
G-||-------4--6------3--------|---------------------------|
D-||-----6--------------4--4--|----4--6--6----------------|
A-||--------------------------|---------------------------|
E-||--------------------------|---------------------------|
  ||                                                      |
  ||                                                      |
e-||--------------------------|---------------------------|
B-||--------------------------|-----------7-----------7---|
G-||6/8==========-------------|--------------6--4--3---(6)|
D-||--------------------------|---------------------------|
A-||--------------------------|---------------------------|
E-||--------------------------|---------------------------|




     EM7      F#                G#m
e-|--------------------------|---------------------------|
B-|-----------2--------------|---------------------------|
G-|--8--------3--------------|--4--------------------4---|
D-|--9--------4--------------|--6--------------4--6------|
A-|--7--------3--------------|--6------------------------|
E-|-----------2--------------|--4------------------------|
  |  /  .  /  .  /  .  /  .     /  .  /  .  /  .  /  .   |
  |                                                      |
  |     kaera       yumeno_____________  Oh monkagewo    |
e-|--------------------------|---------------------------|
B-|--------------------------|---------------------------|
G-|-------4--6------3-----8--|-----------9--8--6--6------|
D-|-----6--------------4-----|-----------------------9---|
A-|--------------------------|---------------------------|
E-|--------------------------|---------------------------|
  |                                                      |
  |                                                      |
e-|--------------------------|-----6--4------------------|
B-|--------------------------|-----------4---------------|
G-|6/8==========-------------|---------------------------|
D-|--------------------------|---------------------------|
A-|--------------------------|---------------------------|
E-|--------------------------|---------------------------|



     EM7      F#                         G#m
e-|--------------------------|---------------------------|
B-|-----------2--------------|---------------------------|
G-|--8--------3--------3-----|--6--------4-----------4---|
D-|--9--------4--------4-----|--8--------6-----4--6------|
A-|--7--------3--------3-----|--9--------6---------------|
E-|-----------2--------2-----|-----------4---------------|
  |  /  .  /  .  /  .  /  .     /  .  /  .  /  .  /  .   |
  |                                                      |
  |     Su lachi    ya ucho       nem - ni               |
e-|--------------------------|---------------------------|
B-|--------------------------|---------------------------|
G-|-------4--6------3--------|---------------------------|
D-|-----6--------------4--4--|-----6-----6---------------|
A-|--------------------------|---------------------------|
E-|--------------------------|---------------------------|
  |                                                      |
  |                                                      |
e-|--------------------------|---------------------------|
B-|--------------------------|-----------7-----------7---|
G-|--------------------------|--------------6--4--3---(6)|
D-|--------------------------|---------------------------|
A-|--------------------------|---------------------------|
E-|--------------------------|---------------------------|



     EM7      F#                  G#m
e-|--------------------------|---------------------------||
B-|-----------2--------------|---------------------------||
G-|--8--------3--------3-----|-----4---------------------||
D-|--9--------4--------4-----|-----6---------------------||
A-|--7--------3--------3-----|-----6---------------------||
E-|-----------2--------2-----|-----4---------------------||
  |  /  .  /  .  /  .  /  .     /  .  /  .  /  .  /  .   ||
  |                                                      ||
  |    Kahsam nem  ta rishite         [Bridge:]   Muja   ||
e-|--------------------------|---------------------------||
B-|--------------------------|---------------------------||
G-|-------4--6------3--------|-----------------------4---||
D-|-----6--------------4--6--|--------------------6------||
A-|--------------------------|---------------------------||
E-|--------------------------|---------------------------||
  |                                                      ||
  |                                                      ||
e-|--------------------------|-----6--4------------------||
B-|--------------------------|-----------4---------------||
G-|6/8==========-------------|---------------------------||
D-|--------------------------|---------------------------||
A-|--------------------------|---------------------------||
E-|--------------------------|---------------------------||




[Bridge 1]   
      E                          F#
e-||--------------------------|----------------------------|
B-||--9--------9--------------|--11-------11---------------|
G-||--9--------9--------------|--11-------11---------------|
D-||--9--------9--------------|--11-------11---------------|
A-||--7--------7--------------|--9--------9----------------|
E-||--------------------------|----------------------------|
  ||  /  .  /  .  /  .  /  .     /  .  /  .   /  .  /  .   |
  ||                                                       |
  ||  kiri   hitowo      Ura    giré      ruhodo           |
e-||--------------------------|----------------------------|
B-||--4--5--------------------|-----4----------------------|
G-||---------6-4-6------3--4--|--6--------6-4-3------------|
D-||--------------------------|----------------------------|
A-||--------------------------|----------------------------|
E-||--------------------------|----------------------------|
  ||                                                       |
  ||                                                       |
e-||--------------------------|-----------------------6----|
B-||--------------------------|----------------------------|
G-||--------------------4-----|--------------------6-------|
D-||-----------------6--------|-----------------4----------|
A-||--------------7-----------|----------------------------|
E-||--------------------------|----------------------------|



     D#m                        G#m
e-|--------------------------|----------------------------|
B-|--7--------7--------------|--4--------4----------------|
G-|--8--------8--------------|--4--------4----------------|
D-|--8--------8--------------|--6--------6----------------|
A-|--6--------6--------------|--6--------6----------------|
E-|--------------------------|--4--------4----------------|
  |  /  .  /  .  /  .  /  .     /  .  /  .  /  .  /  .    |
  |                                                       |
  |      Nadimo  kahmo-ho shi - gate  i-ta-ah             |
e-|--------------------------|----------------------------|
B-|-----7--7--7--7--5--4-----|-----4----------------------|
G-|-----------------------6--|--6-----6--6p4--------------|
D-|--------------------------|----------------------------|
A-|--------------------------|----------------------------|
E-|--------------------------|----------------------------|
  |                                                       |
  |                                                       |
e-|--------------------------|-----6--4-------------------|
B-|-/7-----------------------|-----------4----------------|
G-|--------------------------|----------------------------|
D-|--------------------------|----------------------------|
A-|--------------------------|----------------------------|
E-|--------------------------|----------------------------|



     C#m                        D#m
e-|--------------------------|----------------------------|
B-|--5--------5--------------|--7--------7----------------|
G-|--6--------6--------------|--8--------8----------------|
D-|--6--------6--------------|--8--------8----------------|
A-|--4--------4--------------|--6--------6----------------|
E-|--------------------------|----------------------------|
  |  /  .  /  .  /  .  /  .     /  .  /  .  /  .  /  .    |
  |                                                       |
  |     Wakari____ ah  eta         tomo no                |
e-|--------------------------|----------------------------|
B-|--------------------------|----------------------------|
G-|--------------------------|-----4--5--4----------------|
D-|-----4--4--6-----4-----4--|----------------------------|
A-|--------------------7-----|----------------------------|
E-|--------------------------|----------------------------|



     E                          F#
e-|--------------------------|----------------------------||
B-|--9--------9--------------|--11-------11---------------||
G-|--9--------9--------------|--11-------11---------------||
D-|--9--------9--------------|--11-------11---------------||
A-|--7--------7--------------|--9--------9----------------||
E-|--------------------------|----------------------------||
  |  /  .  /  .  /  .  /  .     /  .  /  .   /  .  /  .   ||
  |                                                       ||
  |     Ah i-shi___ ta hito_____   de sa-e-mo______       ||
e-|--------------------------|----------------------------||
B-|-----------------------4--|-----5----------------------||
G-|--------3--4--------4-----|--------6--4--6-------------||
D-|-----6-----------6--------|----------------------------||
A-|--------------------------|----------------------------||
E-|--------------------------|----------------------------||
  |                                                       ||
  |                                                       ||
e-|--------------------------|--------------6-------------||
B-|--------------------------|-----------------7----------||
G-|--------------------------|--------------------6--4----||
D-|--------------------------|----------------------------||
A-|--------------------------|----------------------------||
E-|--------------------------|----------------------------||


   


[Chorus 1]
      B        E                 F#       D#7
e-||--------------------------|----------------------------|
B-||--4--------0--------------|--2--------4----------------|
G-||--4--------1--------------|--3--------6----------------|
D-||--4--------2--------------|--4--------5----------------|
A-||--2--------2--------------|--4--------6----------------|
E-||-----------0--------------|--2-------------------------|
  ||  /  .  /  .  /  .  /  .     /  .  /  .   /  .  /  .   |
  ||                                                       |
  || Tsu-gu-na - u      ko  -   to sa-e  de -   ki-zu-ni   |
  ||  ⌐---3---¬                                            |
e-||--------------------------|----------------------------|
B-||--4---5---7---------7-----|--7--5--4---------4---------|
G-||--------------4-----------|-----------6---------6--4---|
D-||--------------------------|----------------------------|
A-||--------------------------|----------------------------|
E-||--------------------------|----------------------------|



     G#m      E                 F#       D#7
e-|--------------------------|----------------------------|
B-|--4--------0--------------|--2--------4----------------|
G-|--4--------1--------------|--3--------6----------------|
D-|--6--------2--------------|--4--------5----------------|
A-|--6--------2--------------|--4--------6----------------|
E-|--4--------0--------------|--2-------------------------|
  |  /  .  /  .  /  .  /  .     /  .  /  .   /  .  /  .   |
  |                                                       |
  |        Kyo - mo       I -  ka-mi-wo dek               |
e-|--------4-----------------|----------------------------|
B-|--------------5-----------|-----------4----------------|
G-|-----------------------4--|--3--4--6-------------------|
D-|--------------------------|----------------------------|
A-|--------------------------|----------------------------|
E-|--------------------------|----------------------------|


     B        E                 F#       D#7
e-|--------------------------|----------------------------|
B-|--4--------0--------------|--2--------4----------------|
G-|--4--------1--------------|--3--------6----------------|
D-|--4--------2--------------|--4--------5----------------|
A-|--2--------2--------------|--4--------6----------------|
E-|-----------0--------------|--2-------------------------|
  |  /  .  /  .  /  .  /  .     /  .  /  .   /  .  /  .   |
  |                                                       |
  |  Mu-chu de  ka     ke       nu-ke ru-ke     re-to-mo  |
  |  ⌐---3---¬                                            |
e-|--------------------------|----------------------------|
B-|--4---5---7---------7-----|--7--5--4---------4---------|
G-|--------------4-----------|-----------6---------6--4---|
D-|--------------------------|----------------------------|
A-|--------------------------|----------------------------|
E-|--------------------------|----------------------------|



     G#m      E                 C#
e-|--------------------------|----------------------------|
B-|--4--------0--------------|--6-------------------------|
G-|--4--------1--------------|--6-------------------------|
D-|--6--------2--------------|--6-------------------------|
A-|--6--------2--------------|--4-------------------------|
E-|--4--------0--------------|----------------------------|
  |  /  .  /  .  /  .  /  .     /  .  /  .   /  .  /  .   |
  |                                                       |
  |        Ma - da        a  -  su wa mi-et  -  zi-mu     |
e-|--------4-----------------|----------------------------|
B-|--------------5-----------|--4-------------------------|
G-|-----------------------4--|-----6--4--6------4---------|
D-|--------------------------|---------------------6------|
A-|--------------------------|----------------------------|
E-|--------------------------|----------------------------|


     E                          F#
e-|--------------------------|---------------------------|
B-|--0-----------------------|--2------------------------|
G-|--1-----------------------|--3------------------------|
D-|--2-----------------------|--4------------------------|
A-|--2-----------------------|--4------------------------|
E-|--0-----------------------|--2------------------------|
  |  /  .  /  .  /  .  /  .     /  .  /  .  /  .  /  .   |
  |                                                      |
  |        Sho   ri mo ha-i     bo-ku mo na i  ma-ma     |
e-|--------------------------|---------------------------|
B-|--------5-----5--5--5--5--|--5--4--4--2--2------------|
G-|--------------------------|-----------------4--4------|
D-|--------------------------|---------------------------|
A-|--------------------------|---------------------------|
E-|--------------------------|---------------------------|


      E                          F#                          (B)
 e-|--------------------------|----------------------------||
 B-|--0-----------------------|--2-------------------------||
 G-|--1-----------------------|--3-------------------------||
 D-|--2-----------------------|--4-------------------------||
 A-|--2-----------------------|--4-------------------------||
 E-|--0-----------------------|--2-------------------------||
   |  /  .  /  .  /  .  /  .     /  .  /  .  /  .  /  .    ||
   |                                                       ||
   |        Ko-do kumna weh eh   suwa tsuzu iy___  teku    ||
 e-|-----------------------2--|--5--4--4--2--2-------------||
 B-|--------5--5--5--5--5-----|-----------------5--4--5----||
 G-|--------------------------|----------------------------||
 D-|--------------------------|----------------------------||
 A-|--------------------------|----------------------------||
 E-|--------------------------|----------------------------||
   |                                                       ||
   | [BASS]                                                ||
 G-|--------------------------|----------------------------||
 D-|--------------------------|----------------------------||
 A-|--------------------------|-------------------0----1---||
 E-|--------------------------|--------------2-------------||
   |  /  .  /  .  /  .  /  .     /  .  /  .  /  .   /  .   ||
sn.|--------------------------|--------------x----x----x---||
k. |--x--------x--------------|--x--------x----------------||
    [*See drum key at end]



======================================

 
[Middle Interlude]

 e-||------------------|------------------|-------------------|------------------|
 B-||------4-------7---|--5-------4-2-----|--2----------------|--------------4---|
 G-||--4-------6-------|--------------4-3-|----------4-3---3--|--4-------4-------|
 D-||------------------|------------------|--------------6----|------4-----------|
 A-||--2---------------|------------------|-------------------|--6---------------|
 E-||----------6-------|--4-------2-------|--1-------0--------|------------------|
   ||  /   /   /   /      /   /   /   /      /   /   /   /       /   /   /   /   |
   ||                                                                            |
 G-||------------------|------------------|-------------------|------------------|
 D-||------------------|------------------|-------------------|--1---------------|
 A-||--2-2-2-2-1-1-1-1-|------------------|-------------------|------------------|
 E-||------------------|--4-4-4-4-2-2-2-2-|--1-1-1-1-0-0-0-0--|------------------|
   ||                                                                            |
   ||[With full rock drums]                                                      |
sn.||------x-------x---|------x-------x---|------x-------x----|------x-------x---|
 k.||--x-------x-------|--x-------x-x---x-|--x-------x-----x--|--x-------x-----x-| sim.




  e-|------4---6-------|--4---------------|------------------|------------------||
  B-|--5-----------7---|----------7-5-4---|--5-------4-2---2-|----------0-------||
  G-|------------------|----------------6-|--------------4---|--6---------3-1-3-||
  D-|--6-------4-------|--2---------------|------------------|------------------||
  A-|------------------|----------6-------|--4-------2-------|--0---------------||
  E-|------------------|------------------|------------------|----------2-------||
    |  /   /   /   /      /   /   /   /      /   /   /   /      /   /   /   /   ||
    |                                                                           ||
  G-|------------------|------------------|------------------|------------------||
  D-|------------------|----------1-1-1-1-|------------------|------------------||
  A-|------------------|------------------|--4-4-4-4-2-2-2-2-|------------------||
  E-|--4-4-4-4-2-2-2-2-|--0-0-0-0---------|------------------|--5-5-5-5-2-2-2-2-||



[Verse 3:]
      EM7      F#                         G#m
e-||--------------------------|---------------------------|
B-||-----------2--------------|---------------------------|
G-||--8--------3--------3-----|--6--------4-----------4---|
D-||--9--------4--------4-----|--8--------6-----4--6------|
A-||--7--------3--------3-----|--9--------6---------------|
E-||-----------2--------2-----|-----------4---------------|
  ||  /  .  /  .  /  .  /  .     /  .  /  .  /  .  /  .   |
  ||                                                      |
  ||     Hito wa     kan-shi       gura-hi                |
e-||--------------------------|---------------------------|
B-||--------------------------|---------------------------|
G-||-------4--6------3--------|---------------------------|
D-||-----6-----------------4--|----4--6--6----------------|
A-||--------------------------|---------------------------|
E-||--------------------------|---------------------------|
  ||                                                      |
  ||                                                      |
e-||--------------------------|---------------------------|
B-||--------------------------|-----------7-----------7---|
G-||--------------------------|--------------6--4--3---(6)|
D-||--------------------------|---------------------------|
A-||--------------------------|---------------------------|
E-||--------------------------|---------------------------|



     EM7      F#                G#m
e-|--------------------------|---------------------------|
B-|-----------2--------------|---------------------------|
G-|--8--------3--------x-----|--4--------4-----------4---|
D-|--9--------4--------x-----|--6--------6-----4--6------|
A-|--7--------3--------x-----|--6--------6---------------|
E-|-----------2--------x-----|--4--------4---------------|
  |  /  .  /  .  /  .  /  .     /  .  /  .  /  .  /  .   |
  |                                                      |
  |    Wuazule      te uku ____________  icki mo mo___   |
e-|--------------------------|---------------------------|
B-|--------------------------|---------------------------|
G-|-------4--6------3-----8--|-----------9--8--6--6------|
D-|-----6--------------4-----|-----------------------9---|
A-|--------------------------|---------------------------|
E-|--------------------------|---------------------------|
  |                                                      |
  |                                                      |
e-|--------------------------|-----6--4------------------|
B-|--------------------------|-----------4---------------|
G-|6/8==========-------------|---------------------------|
D-|--------------------------|---------------------------|
A-|--------------------------|---------------------------|
E-|--------------------------|---------------------------|



     EM7      F#                         G#m
e-|--------------------------|---------------------------|
B-|-----------2--------------|---------------------------|
G-|--8--------3--------3-----|--6--------4-----------4---|
D-|--9--------4--------4-----|--8--------6-----4--6------|
A-|--7--------3--------3-----|--9--------6---------------|
E-|-----------2--------2-----|-----------4---------------|
  |  /  .  /  .  /  .  /  .     /  .  /  .  /  .  /  .   |
  |                                                      |
  |     Azale__     yuyoro        kobi-mo                |
e-|--------------------------|---------------------------|
B-|--------------------------|---------------------------|
G-|-------4--6------3--------|---------------------------|
D-|-----6--------------4--4--|----4--6--6----------------|
A-|--------------------------|---------------------------|
E-|--------------------------|---------------------------|
  |                                                      |
  |                                                      |
e-|--------------------------|---------------------------|
B-|--------------------------|-----------7-----------7---|
G-|--------------------------|--------------6--4--3---(6)|
D-|--------------------------|---------------------------|
A-|--------------------------|---------------------------|
E-|--------------------------|---------------------------|




     EM7      F#                G#m
e-|--------------------------|---------------------------||
B-|-----------2--------------|---------------------------||
G-|--8--------3--------3-----|--4------------------------||
D-|--9--------4--------4-----|--6------------------------||
A-|--7--------3--------3-----|--6------------------------||
E-|-----------2--------2-----|--4------------------------||
  |  /  .  /  .  /  .  /  .     /  .  /  .  /  .  /  .   ||
  |                                                      ||
  |     Samishi___  ka kobo         [Bridge:]  I-ma-yo   ||
e-|--------------------------|---------------------------||
B-|--------------------------|-----------------------4---||
G-|-------4--6------3--------|--------------------4------||
D-|-----6--------------4--6--|-----------------6---------||
A-|--------------------------|---------------------------||
E-|--------------------------|---------------------------||
  |                                                      ||
  |                                                      ||
e-|--------------------------|-----6--4------------------||
B-|--------------------------|-----------4---------------||
G-|6/8==========-------------|---------------------------||
D-|--------------------------|---------------------------||
A-|--------------------------|---------------------------||
E-|--------------------------|---------------------------||



[Bridge 2]   
      E                          F#
e-||--------------------------|----------------------------|
B-||--9--------9--------------|--11-------11---------------|
G-||--9--------9--------------|--11-------11---------------|
D-||--9--------9--------------|--11-------11---------------|
A-||--7--------7--------------|--9--------9----------------|
E-||--------------------------|----------------------------|
  ||  /  .  /  .  /  .  /  .     /  .  /  .   /  .  /  .   |
  ||                                                       |
  ||        i-ma-ri     Suzu     muka    menigua           |
e-||--------------------------|----------------------------|
B-||-(4)----5-----------------|-----4----------------------|
G-||-----------6--4-----3--4--|--6--------6-4-3------------|
D-||--------------------------|----------------------------|
A-||--------------------------|----------------------------|
E-||--------------------------|----------------------------|
  ||                                                       |
  ||                                                       |
e-||--------------------------|-----------------------6----|
B-||--------------------------|----------------------------|
G-||--------------------4-----|--------------------6-------|
D-||-----------------6--------|-----------------4----------|
A-||--------------7-----------|----------------------------|
E-||--------------------------|----------------------------|



     D#m                         G#m
e-|---------------------------|----------------------------|
B-|--7--------7---------------|--4--------4----------------|
G-|--8--------8---------------|--4--------4----------------|
D-|--8--------8---------------|--6--------6----------------|
A-|--6--------6---------------|--6--------6----------------|
E-|---------------------------|--4--------4----------------|
  |  /  .  /  .  /  .  /   .     /  .  /  .  /  .  /  .    |
  |                                                        |
  |     Para  so i  o-saka te    to-re-mai__               |
e-|---------------------------|----------------------------|
B-|-----7--7--7--7--5--4-4----|-----4----------------------|
G-|------------------------6--|--6-----6--4----------------|
D-|---------------------------|----------------------------|
A-|---------------------------|----------------------------|
E-|---------------------------|----------------------------|
  |                                                        |
  |                                                        |
e-|---------------------------|-----6--4-------------------|
B-|-/7------------------------|-----------4----------------|
G-|---------------------------|----------------------------|
D-|---------------------------|----------------------------|
A-|---------------------------|----------------------------|
E-|---------------------------|----------------------------|



     C#m                        D#m
e-|--------------------------|----------------------------|
B-|--5--------5--------------|--7--------7----------------|
G-|--6--------6--------------|--8--------8----------------|
D-|--6--------6--------------|--8--------8----------------|
A-|--4--------4--------------|--6--------6----------------|
E-|--------------------------|----------------------------|
  |  /  .  /  .  /  .  /  .     /  .  /  .  /  .  /  .    |
  |                                                       |
  |     Sunaku      ishte se       ka i-wa                |
e-|--------------------------|----------------------------|
B-|--------------------------|----------------------------|
G-|--------------------------|-----4--5--4----------------|
D-|-----4--4--6-----4-----4--|----------------------------|
A-|--------------------7-----|----------------------------|
E-|--------------------------|----------------------------|



     E                          F#
e-|--------------------------|----------------------------||
B-|--9--------9--------------|--11-------11---------------||
G-|--9--------9--------------|--11-------11---------------||
D-|--9--------9--------------|--11-------11---------------||
A-|--7--------7--------------|--9--------9----------------||
E-|--------------------------|----------------------------||
  |  /  .  /  .  /  .  /  .     /  .  /  .   /  .  /  .   ||
  |                                                       ||
  |    Ko  o-mo     maritu         du-ka-ta-ru_____       ||
e-|--------------------------|----------------------------||
B-|-----------------------4--|-----5----------------------||
G-|--------3--4--------4-----|--------6--4--6-------------||
D-|-----6-----------6--------|----------------------------||
A-|--------------------------|----------------------------||
E-|--------------------------|----------------------------||
  |                                                       ||
  |                                                       ||
e-|--------------------------|--------------6-------------||
B-|--------------------------|-----------------7----------||
G-|--------------------------|--------------------6--4----||
D-|--------------------------|----------------------------||
A-|--------------------------|----------------------------||
E-|--------------------------|----------------------------||



[Chorus 2]
      B        E                 F#       D#7
e-||--------------------------|----------------------------|
B-||--4--------0--------------|--2--------4----------------|
G-||--4--------1--------------|--3--------6----------------|
D-||--4--------2--------------|--4--------5----------------|
A-||--2--------2--------------|--4--------6----------------|
E-||-----------0--------------|--2-------------------------|
  ||  /  .  /  .  /  .  /  .     /  .  /  .   /  .  /  .   |
  ||                                                       |
  ||  Ha-te-shi  na     i       ya  miko  mu  -  ko o-li   |
  ||  ⌐---3---¬                                            |
e-||--------------------------|----------------------------|
B-||--4---5---7---------7-----|--7--5--4---------4---------|
G-||--------------4-----------|-----------6---------6--4---|
D-||--------------------------|----------------------------|
A-||--------------------------|----------------------------|
E-||--------------------------|----------------------------|



     G#m      E                 F#       D#7
e-|--------------------------|----------------------------|
B-|--4--------0--------------|--2--------4----------------|
G-|--4--------1--------------|--3--------6----------------|
D-|--6--------2--------------|--4--------5----------------|
A-|--6--------2--------------|--4--------6----------------|
E-|--4--------0--------------|--2-------------------------|
  |  /  .  /  .  /  .  /  .     /  .  /  .   /  .  /  .   |
  |                                                       |
  |        whoa -oh       Te   to-do gatso                |
e-|--------4-----------------|----------------------------|
B-|--------------5-----------|-----------4----------------|
G-|-----------------------4--|--3--4--6-------------------|
D-|--------------------------|----------------------------|
A-|--------------------------|----------------------------|
E-|--------------------------|----------------------------|



      B        E                 F#       D#7
e-|--------------------------|---------------------------|
B-|--4--------0--------------|--2--------4---------------|
G-|--4--------1--------------|--3--------6---------------|
D-|--4--------2--------------|--4--------5---------------|
A-|--2--------2--------------|--4--------6---------------|
E-|-----------0--------------|--2------------------------|
  |  /  .  /  .  /  .  /  .     /  .  /  .  /  .  /  .   |
  |                                                      |
  |  Ta-re-ka - ro     ya       be-ni ik-te    mi-te-mo  |
  |  ⌐---3---¬                                           |
e-|--------------------------|---------------------------|
B-|--4---5---7---------7-----|--7--5--4--------4---------|
G-|--------------4-----------|-----------6--------6--4---|
D-|--------------------------|---------------------------|
A-|--------------------------|---------------------------|
E-|--------------------------|---------------------------|



     G#m      E                 C#
e-|--------------------------|----------------------------|
B-|--4--------0--------------|--6--------6----------------|
G-|--4--------1--------------|--6--------6----------------|
D-|--6--------2--------------|--6--------6----------------|
A-|--6--------2--------------|--4--------4----------------|
E-|--4--------0--------------|----------------------------|
  |  /  .  /  .  /  .  /  .     /  .  /  .   /  .  /  .   |
  |                                                       |
  |        Whoa-oh        To - morrow never knows         |
e-|--------4-----------------|----------------------------|
B-|--------------5-----------|--4-------------------------|
G-|-----------------------4--|-----6--6--4---6------------|
D-|--------------------------|----------------------------|
A-|--------------------------|----------------------------|
E-|--------------------------|----------------------------|



     E                          F#
e-|--------------------------|---------------------------|
B-|--0-----------------------|--2------------------------|
G-|--1-----------------------|--3------------------------|
D-|--2-----------------------|--4------------------------|
A-|--2-----------------------|--4------------------------|
E-|--0-----------------------|--2------------------------|
  |  /  .  /  .  /  .  /  .     /  .  /  .  /  .  /  .   |
  |                                                      |
  |        Ko-ko-ro no-ma-ma    bo-ku a-yu  ku-do-sai    |
e-|--------------------------|---------------------------|
B-|--------5--5--5--5--5--5--|--5--4--4--2--2------------|
G-|--------------------------|-----------------4--4------|
D-|--------------------------|---------------------------|
A-|--------------------------|---------------------------|
E-|--------------------------|---------------------------|


      E                          F#                          (A)
 e-|--------------------------|----------------------------||
 B-|--0-----------------------|--2-------------------------||
 G-|--1-----------------------|--3-------------------------||
 D-|--2-----------------------|--4-------------------------||
 A-|--2-----------------------|--4-------------------------||
 E-|--0-----------------------|--2-------------------------||
   |  /  .  /  .  /  .  /  .     /  .  /  .  /  .  /  .    ||
   |                                                       ||
   |        Da-re moshi ruko     tomo  nahi  ash_  ta-e    ||
 e-|-----------------------2--|--5--4--4--2--2-------------||
 B-|--------5--5--5--5--5-----|-----------------5--4--5----||
 G-|--------------------------|----------------------------||
 D-|--------------------------|----------------------------||
 A-|--------------------------|----------------------------||
 E-|--------------------------|----------------------------||



[INSTRUMENTAL]
[Saxophone Solo]
      A                             E/G#
e-||----------------------------|-----------------------------|
B-||--5-------------------------|---5-------------------------|
G-||--6-------------------------|---4-------------------------|
D-||--7-------------------------|---2-------------------------|
A-||--7-------------------------|---2-------------------------|
E-||--5-------------------------|---4-------------------------|
  ||  /  .  /  .  /  .  /   .       /  .   /  .  /  .  /  .   |
  ||                                                          |
  || [Sax]                                                    |
e-||--8-------------------8h10p8|b>11--10--8--8---------------|
B-||/---------------------------|-----------------------------|
G-||----------------------------|-----------------------------|
D-||----------------------------|-----------------------------|
A-||----------------------------|-----------------------------|
E-||----------------------------|-----------------------------|
  ||                                                          |
  ||                                                          |
G-||----------------------------|-----------------------------|
D-||----------------------------|-----------------------------|
A-||----------------------------|-----------------------------|
E-||--5--5--5--5--5--5--5---5---|---4--4---4--4--4--4--4--4---|



      G                                   F#
e-||-----------------------------------|-----------------------------|
B-||--5----------------5---------------|--3------------2-------------|
G-||--6----------------4---------------|--4------------3-------------|
D-||--7----------------2---------------|--5------------4-------------|
A-||--7----------------2---------------|--5------------4-------------|
E-||--5----------------4---------------|--3------------2-------------|
  ||  /   .    /   .   /    .   /   .     /  .  /  .   /  .  /   .   |
  ||                                                                 |
  ||                                                                 |
e-||--------------------------------7--|-------------------------14==|
B-||----7-10p7h10----7-10p7h10---------|--11\------7------9--12------|
G-||-----------------------------------|-----------------------------|
D-||-----------------------------------|--------9--------------------|
A-||-----------------------------------|-----------------------------|
E-||-----------------------------------|-----------------------------|
  ||                                                                 |
  ||                                                                 |
G-||-----------------------------------|-----------------------------|
D-||-----------------------------------|-----------------------------|
A-||-----------------------------------|-----------------------------|
E-||--3---3----3---3---3----3---3---3--|--2--2--2--2---2--2--2---2---|



      A                           E/G#
e-||---------------------------|----------------------------|
B-||--5------------------------|--5-------------------------|
G-||--6------------------------|--4-------------------------|
D-||--7------------------------|--2-------------------------|
A-||--7------------------------|--2-------------------------|
E-||--5------------------------|--4-------------------------|
  ||  /  .  /  .  /  .  /  .      /  .   /  .  /  .  /  .   |
  ||                                                        |
  ||                                                        |
e-||=(14)------------12--------|----/12=----------------17==|
B-||-----------------------12==|===------------------12-----|
G-||--------------------13-----|----------------------------|
D-||---------------------------|----------------------------|
A-||---------------------------|----------------------------|
E-||---------------------------|----------------------------|
  ||                                                        |
  ||                                                        |
G-||---------------------------|----------------------------|
D-||---------------------------|----------------------------|
A-||---------------------------|----------------------------|
E-||--5--5--5--5--5--5--5--5---|--4--4---4--4--4--4--4--4---|



      G                               F#
e-||--------------------------------|-----------------------------------------||
B-||--5------------5----------------|--3------------------2-------------------||
G-||--6------------4----------------|--4------------------3-------------------||
D-||--7------------2----------------|--5------------------4-------------------||
A-||--7------------2----------------|--5------------------4-------------------||
E-||--5------------4----------------|--3------------------2-------------------||
  ||  /  .   /  .  /  .     /   .      /  .       /   .   /  .       /   .    ||
  ||                                                                          ||
  ||                                                                          ||
e-||-----14-----------12p11h12--11--|-----11-{10)/14--------------------------||
B-||--------12----------------------|-----------------14-----12-(14)/16--12---||
G-||--------------------------------|-----------------------------------------||
D-||--------------------------------|-----------------------------------------||
A-||--------------------------------|-----------------------------------------||
E-||--------------------------------|-----------------------------------------||
  ||                                                                          ||
  ||  /  .   /  .  /  .     /   .      /  .       /   .   /  .       /   .    ||
G-||--------------------------------|-----------------------------------------||
D-||--------------------------------|-----------------------------------------||
A-||--------------------------------|-----------------------------------------||
E-||--3--3---3--3--3--3-----3---3---|--2--2-------2---2---2--2-------2---2----||
                                                       [Drums build, tom roll]


[Refrain]
      E                          F#
e-||--------------------------|--------------------------|
B-||--0-----------------------|--2-----------------------|
G-||--1-----------------------|--3-----------------------|
D-||--2-----------------------|--4-----------------------|
A-||--2-----------------------|--4-----------------------|
E-||--0-----------------------|--2-----------------------|
  ||  /  .  /  .  /  .  /  .     /  .  /  .  /  .  /  .  |
  ||                                                     |
  ||       Ya-sas    sa-ba te - cha i-qui-la we-na       |
e-||--------------------------|--------------------------|
B-||--------------------------|--------------------------|
G-||--------4--4-----4--4--4--|--4--3--3--1--1-----------|
D-||--------------------------|-----------------4--------|
A-||--------------------------|--------------------------|
E-||--------------------------|--------------------------|
  ||                                                     |
  ||                                                     |
G-||--------------------------|--------------------------|
D-||--------------------------|--------------------------|
A-||--------------------------|--------------------------|
E-||-0---------------------0--|--2--------------------2--|
  ||                                                     |
  ||                                                     |
k.||--x--------------------x--|--x--------------------x--|
     [Cut to only kick drum]


      E                          F#
 e-|--------------------------|--------------------------|
 B-|--5-----------------------|--7-----------------------|
 G-|--4-----------------------|--6-----------------------|
 D-|--6-----------------------|--8-----------------------|
 A-|--7-----------------------|--9-----------------------|
 E-|--------------------------|--------------------------|
   |  /  .  /  .  /  .  /  .     /  .  /  .  /  .  /  .  |
   |                                                     |
   |       Wa-ka  re wo e-ran       dash- to mo i-ru     |
 e-|--------------------------|--------------------------|
 B-|--------------------------|-----2-----2--2-----------|
 G-|--------4--4--4--4--4--4--|-----------------4--4-----|
 D-|--------------------------|--------------------------|
 A-|--------------------------|--------------------------|
 E-|--------------------------|--------------------------|
   |                                                     |
   |                                                     |
 e-|--------------------------|--------------------------|
 B-|--------------------------|--------------------2-----|
 G-|--------------------------|--------------4-----------|
 D-|--------------------------|-----------------4-----4--|
 A-|--------------------------|--------------------------|
 E-|--------------------------|--------------------------|
   |                                                     |
   |                                                     |
 G-|--------------------------|--------------------------|
 D-|--------------------------|--------------------------|
 A-|--------------------------|--------------------------|
 E-|--0--------------------0--|--2--------------------2--|
   |                                                     |
   |                                                     |
hh.|--------------------------|----------------------«x=»|
sn.|--------------------------|-----------------------x--|
 k.|--x--------------------x--|--x--------------------x--|



      E                          F#
 e-|--------------------------|--------------------------|
 B-|--0-----------------------|--2-----------------------|
 G-|--1-----------------------|--3-----------------------|
 D-|--2-----------------------|--4-----------------------|
 A-|--2-----------------------|--4-----------------------|
 E-|--0-----------------------|--2-----------------------|
   |  /  .  /  .  /  .  /  .     /  .  /  .  /  .  /  .  |
   |                                                     |
   |        U-ku-ta-bi bo-ku    ra wa-de ah-u  da-ru     |
 e-|--------------------------|--------------------------|
 B-|--------------------------|--------------------------|
 G-|--------4--4--4--4--4--4--|--4--3--3--1--1-----------|
 D-|--------------------------|-----------------4--4-----|
 A-|--------------------------|--------------------------|
 E-|--------------------------|--------------------------|
   |                                                     |
   |  [hold]                                             |
 e-|--------------------------|--------------------------|
 B-|-/7-----------------------|--------------------2-----|
 G-|--------------------------|--------------4-----------|
 D-|--------------------------|-----------------4-----4--|
 A-|--------------------------|--------------------------|
 E-|--------------------------|--------------------------|
   |                                                     |
   |                                                     |
 G-|--------------------------|--------------------------|
 D-|--------------------------|--------------------------|
 A-|--------------------------|--------------------------|
 E-|--0--0--0--0--0--0--0--0--|--2--2--2--2--2--2--2--2--|
   |                                                     |
   |                                                     |
hh.|--------------------------|----------------------«x=»|
sn.|--------------------------|-----------------------x--|
 k.|--x-----x-----x-----x-----|--x-----x-----x-----x--x--|




      E                          F#
 e-|--------------------------|----------------------------|
 B-|--9-----------------------|--11------------------------|
 G-|--9-----------------------|--11------------------------|
 D-|--9-----------------------|--11------------------------|
 A-|--7-----------------------|--9-------------------------|
 E-|--------------------------|----------------------------|
   |  /  .  /  .  /  .  /  .     /  .  /   .   /  .  /  .  |
   |                                                       |
   |       Ko-no  na-ga i-ta    bi-ki no -do   ko   ka-de_ |
 e-|--------------------------|----------------------------|
 B-|-----------------------2--|--5--4--4---2---2--------2==|
 G-|--------4--4--4--4--4-----|----------------------4-----|
 D-|--------------------------|----------------------------|
 A-|--------------------------|----------------------------|
 E-|--------------------------|----------------------------|
   |                                                       |
   |  [hold]                                               |
 e-|--------------------------|----------------------------|
 B-|-/7-----------------------|----------------------------|
 G-|--------------------------|----------------------------|
 D-|--------------------------|----------------------------|
 A-|--------------------------|----------------------------|
 E-|--------------------------|----------------------------|
   |                                                       |
   |                                           ⌐---3---¬   |
 G-|--------------------------|----------------------------|
 D-|--------------------------|----------------------------|
 A-|--------------------------|----------------------------|
 E-|--0--0--0--0--0--0--0--0--|--2--2--2---2---2---2---2---|
   |  /  .  /  .  /  .  /  .     /  .  /   .   /  .  /  .  |
   |                                           ⌐---3---¬   |
sn.|--------------------------|-----x--x-x-x---x---x---x---|
 k.|--x-----x-----x-----x-----|--x-----x-------x-----x-----|



      [N.C.]                   [keyboard glissando]    2/4
 e-|-------------------------|-------------------------|---------------||
 B-|-------------------------|-------------------------|---------------||
 G-|--7=========-------------|-------------------------|---------------||
 D-|-------------\4==========|====/............/18-----|---------------||
 A-|-------------------------|-------------------------|---------------||
 E-|-------------------------|-------------------------|---------------||
   |                                                                   ||
   |  ⌐---3---¬   ⌐---3---¬     ⌐---3---¬   ⌐---3---¬                  ||
 e-|-------------------------|-------------------------|---------------||
 B-|-------------------------|-------------------------|---------------||
 G-|-------------------------|-------------------------|---------------||
 D-|-------------------------|--2---4---5---6==========|=============--||
 A-|--------------2---4---6--|-------------------------|---------------||
 E-|--2---4---6--------------|-------------------------|---------------||
   |  .           .             .           .                          ||
   |                                                                   ||
 G-|-------------------------|-------------------------|---------------||
 D-|-------------------------|--2---4---5---6==========|=============--||
 A-|--------------2---4---6--|-------------------------|---------------||
 E-|--2---4---6--------------|-------------------------|---------------||
   |                                                                   ||
   |  /  .  /  .  /  .  /  .    /  .  /  .  /  .  /  .    /  .  /  .   ||
cs.|--x-----------x----------|--x-----------x----------|---------------||
sn.|--x---x---x---x---x---x--|--x---x---x---x----------|-----------x-x-||
 k.|--x---x---x---x---x---x--|--x---x---x---x----------|---------------||



[Chorus 3]
      C#       F#                G#       F7
e-||--------------------------|---------------------------|
B-||--6--------2--------------|--4--------6---------------|
G-||--6--------3--------------|--5--------8---------------|
D-||--6--------4--------------|--6--------7---------------|
A-||--4--------4--------------|--6--------8---------------|
E-||-----------2--------------|--4------------------------|
  ||  /  .  /  .  /  .  /  .     /  .  /  .  /  .  /  .   |
  ||                                                      |
  ||  Ha -te -shi-na    i        ya mi-ko mu -  ko o-li   |
  ||  ⌐---3---¬                                           |
e-||--------------------------|---------------------------|
B-||--6---7---9---------9-----|--9--7--6--------6---------|
G-||--------------6-----------|-----------8--------8--6---|
D-||--------------------------|---------------------------|
A-||--------------------------|---------------------------|
E-||--------------------------|---------------------------|


     A#m      F#                G#       F7
e-|--------------------------|---------------------------|
B-|--6--------2--------------|--4--------6---------------|
G-|--6--------3--------------|--5--------8---------------|
D-|--8--------4--------------|--6--------7---------------|
A-|--8--------4--------------|--6--------8---------------|
E-|--6--------2--------------|--4------------------------|
  |  /  .  /  .  /  .  /  .     /  .  /  .  /  .  /  .   |
  |                                                      |
  |        Whoa -oh       Te    wo no-ba-so              |
e-|--------6-----------------|---------------------------|
B-|--------------7-----------|-----------6---------------|
G-
Добавлено: 21.04.2012
Другие материалы по этой песне:
  • Аккорды и текст

Страница создана 21.04.2012
http://primanota.ru/mr-children/tomorrow-never-knows-chords.htm
Привет, Гость.
Предлагаем пройти революционный курс по гитаре.
Подарок от PrimaNota.Ru, забирай!