PrimaNota.ru - самый крупный в мире бесплатный архив песенных текстов, аккордов, табулатур и нот


Mr. Bungle - The Air-Conditioned Nightmare - текст песни, бас-таба, видео

Регистрация Запомнить меня
Войти через:  Facebook Google Twitter Vk Yandex Mail.ru

Mr. Bungle - The Air-Conditioned Nightmare - текст песни, бас-таба, видео

Печатать
Просмотров: 216
Уроки эстрадного вокала в Санкт-Петербурге
The Air-Conditioned Nightmar- Mr Bungle
-------------------------------------------------------------------------------

Tabbed By: Danny D. 
e-mail: 

Tuning: EADG
Intro
G|---|---|---|---|----------------------------|
D|---|---|-5-|---|----------------------------|
A|-8-|-7-|---|---|---8~~~~~7~~~~6~~~~5~~~~~---|
E|---|---|-3-|-1-|----------------------------|

Verse
  (24X) (16X)
G|-----|-----|-------------------------------|------------------------------|
D|-----|-----|-------------------------------|------------------------------|
A|--5--|--2--|------------2/5------------2/5-|-----------1/4------------1/4-|
E|-----|-----|--3-3-X-3-3------3-3-X-3-3-----|-2-2-X-2-2------2-2-X-2-2-----|

  (16X) 
G|-----|---------------------------------|
D|-----|---------4-4-6-4-7-7-6-6-4-4-----|
A|-----|--2--4/6---------------------6-6-|
E|--3--|---------------------------------|

  (16X)
G|-----|---------------------------------------------|
D|-----|---------------------------------------------|
A|-----|-------------------------------2-2-2-2-1-----|
E|--3--|--5-5-5-5-4-3-2--5-5-5-5--2-1------------4-1-|

Play the verse over again(x1) 

Chorus
G|-----------|----------------------|
D|-----------|---3---3------------3-|
A|--5-4-3-4-0|-5---4---3--3h4h3h4---|
E|-----------|----------------------|

G|-----------|----------------------|
D|-----------|---3---3--------------|
A|--5-4-3-4-0|-5---4---3--3h4h3h4---|
E|-----------|--------------------1-|

Bridge
G|------------------------|----------2-----|--------------------------
D|-3----------------------|-3-----------3-3|--------------------------
A|---3-4-5--0-0-0------3-3|---3-4-5--0-----|-5------------------------
E|-----------------3-3----|----------------|---3-5--4-6--5-7--5-7\----

----------------------------------------|-----------------------------
--------------------------------3h4h3---|-3---------------------------
--3-3-3-0-3-0-4-4-4-3-0-3-5-5-5-------4-|---3-4-5---------------------
----------------------------------------|---------3-5--4-6--5-7--5-7\-

----------------------------------------------|
----------------------------------------------|
--3-3-3-0-3-0-4-4-4-3-0-3-5-5-5-8h7-----------|
-----------------------------------6~~~~~~~~~~|

Play the chorus again(x1)

Last Note.
G|---|
D|---|
A|---|
E|-1-|

This is my first tab. The notes when Patton sings "Now that the bandages are gone." may be off. Close enough. 

| /  slide up
| \  slide down
| h  hammer-on
| p  pull-off
| ~  vibrato
| +  harmonic
| x  Mute note
===============================================================================
Добавлено: 17.11.2013
Другие материалы по этой песне:
  • Аккорды и текст

Страница создана 16.03.2012
http://primanota.ru/mr-bungle/the-air-conditioned-nightmare-chords.htm
Привет, Гость.
Предлагаем пройти революционный курс по гитаре.
Подарок от PrimaNota.Ru, забирай!