PrimaNota.ru - самый крупный в мире бесплатный архив песенных текстов, аккордов, табулатур и нот


Mr Big - Stay Together - аккорды и текст, таба, видео

Регистрация Запомнить меня
Войти через:  Facebook Google Twitter Vk Yandex Mail.ru

Mr Big - Stay Together - аккорды и текст, таба, видео

Печатать
Просмотров: 137
Stay Together
Mr Big
		MR BIG - STAY TOGETHER 



     E  E  E  E  E  Q.        E  E  E  E  E  E  Q       E  E  E  E  E  E  Q     
E||------------------------|-------------------------|--0--------2--L----------|
B||--0---------------------|--5--------7--L----------|-----0-----------2-------|
G||-----1-----------3------|-----6-----------8-------|--------1-----------3----|
D||--------2--4--L---------|--------7-----------9----|-------------------------|
A||------------------------|-------------------------|-------------------------|
E||------------------------|-------------------------|-------------------------|


  E  E  E  E  E  E  Q       E  E  E  E  E  E  E  S  S  
--5--------7--L----------|--4--------6--L-------------|
-----5-----------7-------|-----5-----------7--L-------|
--------6-----------8----|--------4--------------9-11-|
-------------------------|----------------------------|
-------------------------|----------------------------|
-------------------------|----------------------------|


  E   E  E   E  E   E  E  S  S     E   E  E  E   E  E  Q     
--9---------11--L--------------|--10---------9--------------|
-----10------------12--L-------|------10--------10-----9----|
---------9----------------9-11-|----------9---------9--9----|
-------------------------------|-----------------------9----|
-------------------------------|----------------------------|
-------------------------------|----------------------------|


  Q.     E  Q    Q       H        E  E  E  E     E   E  E   E  E  E  E  E   
|--L--------------------|----------------------------|
|--L-----------------5--|--L\-----5p--4-----------7--|
|--L-----------------6--|--L\--x---------6--------7--|
|--L-----------------6--|--L\---------------6-----7--|
|--L-----------------4--|--L\------------------7--5--|
|--L-----------2--4-----|----------------------------|


                                PM                                              
  E  E  E  E  E  E  E  E     E  E   Q    Q.      E     E   E  E  E  Q    E  E   
-----------5-----5--------|----------------------7--|--L-----------------------|
-----7-----5-----5-----9--|--------10----9\------9--|--L--10--9--7--9-------5--|
-----7-----6-----6-----9--|---------9----9\------9--|--L---9--9--9--9-------6--|
-----7-----7-----7-----9--|---------9----9\------9--|--L---9--9--9--9-------6--|
-----5-----------------7--|-----7---7----7\---------|-----------------------4--|
--------------------------|-------------------------|--------------------------|


  E  E  E  E  E   E  E  E     E  E  E  E  E  E  E  E   
---------------------------|-----------5-----5--------|
-----5--------4h--5-----7--|-----7-----5-----5-----9--|
-----6-----6------------7--|-----7-----6-----6-----9--|
-----6-----6------------7--|-----7-----7-----7-----9--|
-----4---------------x--5--|-----5-----------------7--|
---------------------------|--------------------------|


     PM                                                   PM PM PM PM PM PM     
  E  E   Q    Q     E  E     E  E  E  E  Q    E  E     E  E  E  E  E  E  E  E   
--------------------------|--------------2-------0--|--L-----------------------|
--------10----9\----------|----------------------0--|--L--------------------4--|
---------9----9\----------|--------3--4-------4--2--|--L--------------------6--|
---------9----9\----------|-----2----------------2--|--L--2--2--2--2--2--2-----|
-----7---7----7\----------|----------------------0--|--L--0--0--0--0--0--0-----|
--------------------0--2--|--L----------------------|--------------------------|


     PM PM PM       PM          PM PM PM PM    PM     
  E  E  E  E  E  E  E  E     E  E  E  E  E  E  E  E   
--------------------------|--------------------------|
--L--5--4--2--4--5--------|--------------------------|
--L--6--6--4--6--6-----4--|--L--------------4-----4--|
--------------------2--4--|--L--4--4--4--4--4--4--4--|
--------------------0--2--|--L--2--2--2--2--2--2--2--|
--------------------------|--------------------------|


     PM PM                             PM PM PM PM              PM PM PM PM  
  E  E  E  E  E  E  E  E     Q    Q    E  E  E  E     Q    Q    E  E  E  E   
-----------------0--------|------------------------|------------------------|
--------------------0-----|------------------------|------------------------|
--L--4--4--2--L-----------|--9----9----------------|--9----9----------------|
--L--4--4--2--L-----------|--9----9----------------|--9----9----------------|
--L--2--2--0--L-----------|--7----7----------------|--7----7----------------|
-----------------------0--|------------0--0--0--0--|------------0--0--0--0--|


            PM PM PM PM              PM PM    PM                      PM  
  Q    Q    E  E  E  E     Q    Q    E  E  E  E     Q.     E  E  Q    E   
------------------------|------------------------|---------0--L----------|
--5----5----------------|--5----5----------5-----|--0------------0-------|
--6----6----------------|--6----6----------6-----|--2--------------------|
--6----6----------------|--6----6----------6-----|--2--------------------|
--4----4----4--4--4--4--|--4----4----4--4-----4--|--0--------------------|
------------------------|------------------------|--------------------4--|


                    PM                                                       
  Q.     E  E  Q    E     Q    E  E  E  E  E  E     E  E  E  E  E  E  E  E   
---------0--0----------|-------------------------|-----------------0--------|
---------------0-------|--2-------2-----2-----4--|--L--------0--L-----0-----|
--4--------------------|--2-------2-----2-----4--|--L-----4--2--L--------2--|
--4--------------------|--2-------2-----2-----4--|--L--4-----2--L-----------|
-----------------------|-------4-----4-----4--2--|--L--------0--L-----------|
--4-----------------2--|-------2-----2-----2-----|--------------------------|


            PM PM PM PM              PM PM PM PM              PM PM PM PM  
  Q    Q    E  E  E  E     Q    Q    E  E  E  E     Q    Q    E  E  E  E   
------------------------|------------------------|------------------------|
------------------------|------------------------|--5----5----------------|
--9----9----------------|--9----9----------------|--6----6----------------|
--9----9----------------|--9----9----------------|--6----6----------------|
--7----7----------------|--7----7----------------|--4----4----4--4--4--4--|
------------0--0--0--0--|------------0--0--0--0--|------------------------|


            PM PM    PM              PM    PM                          
  Q    Q    E  E  E  E     Q    Q    E  E  E  E     H        H         
------------------------|------------------------|--------------------|
--5----5----------5-----|--2----2-------2-----2--|--L--------L--------|
--6----6----------6-----|--2----2-------2-----4--|--L--------L--------|
--6----6----------6-----|--2----2-------2-----4--|--L--------L--------|
--4----4----4--4-----4--|--0----0----0-----0--2--|--L--------L--------|
------------------------|------------------------|--------------------|


       PM         PM PM         PM                                              
  Q    E  E  Q    E  E     Q    E  E  E  E  E  E     E   E  E   E  E  E  E  E   
------------------------|-------------------------|----------------------------|
--0-------2--L----------|--5-------7--L--------5--|--L\-----5p--4-----------7--|
--1-------3--L----------|--6-------8--L--------6--|--L\--x---------6--------7--|
--2-------4--L----------|--7-------9--L--4--6--6--|--L\---------------6-----7--|
--2-------4--L----------|--7-------9--L--------4--|--L\------------------7--5--|
--0----0----------0--0--|-------0-----------------|----------------------------|


                                PM                                              
  E  E  E  E  E  E  E  E     E  E   Q    Q.      E     E   E  E  E  Q    E  E   
-----------5-----5--------|----------------------7--|--L-----------------------|
-----7-----5-----5-----9--|--------10----9\------9--|--L--10--9--7--9-------5--|
-----7-----6-----6-----9--|---------9----9\------9--|--L---9--9--9--9-------6--|
-----7-----7-----7-----9--|---------9----9\------9--|--L---9--9--9--9-------6--|
-----5-----------------7--|-----7---7----7\---------|-----------------------4--|
--------------------------|-------------------------|--------------------------|


  E  E  E  E  E   E  E  E     E  E  E  E  E  E  E  E   
---------------------------|-----------5-----5--------|
-----5--------4h--5-----7--|-----7-----5-----5-----9--|
-----6-----6------------7--|-----7-----6-----6-----9--|
-----6--6---------------7--|-----7-----7-----7-----9--|
-----4---------------x--5--|-----5-----------------7--|
---------------------------|--------------------------|


     PM                                                   PM PM PM PM PM PM     
  E  E   Q    Q     E  E     E  E  E  E  Q    E  E     E  E  E  E  E  E  E  E   
--------------------------|--------------2-------0--|--L-----------------------|
--------10----9\----------|----------------------0--|--L--------------------4--|
---------9----9\----------|--------3--4-------4--2--|--L--------------------6--|
---------9----9\----------|-----2----------------2--|--L--2--2--2--2--2--2-----|
-----7---7----7\----------|----------------------0--|--L--0--0--0--0--0--0-----|
--------------------0--2--|--L----------------------|--------------------------|


     PM PM PM       PM          PM PM PM PM    PM     
  E  E  E  E  E  E  E  E     E  E  E  E  E  E  E  E   
--------------------------|--------------------------|
--L--5--4--2--4--5--------|--------------------------|
--L--6--6--4--6--6-----4--|--L--------------4-----4--|
--------------------2--4--|--L--4--4--4--4--4--4--4--|
--------------------0--2--|--L--2--2--2--2--2--2--2--|
--------------------------|--------------------------|


     PM PM                             PM PM PM PM              PM PM PM PM  
  E  E  E  E  E  E  E  E     Q    Q    E  E  E  E     Q    Q    E  E  E  E   
-----------------0--------|------------------------|------------------------|
--------------------0-----|------------------------|------------------------|
--L--4--4--2--L-----------|--9----9----------------|--9----9----------------|
--L--4--4--2--L-----------|--9----9----------------|--9----9----------------|
--L--2--2--0--L-----------|--7----7----------------|--7----7----------------|
-----------------------0--|------------0--0--0--0--|------------0--0--0--0--|


            PM PM PM PM              PM PM    PM                      PM  
  Q    Q    E  E  E  E     Q    Q    E  E  E  E     Q.     E  E  Q    E   
------------------------|------------------------|---------0--L----------|
--5----5----------------|--5----5----------5-----|--0------------0-------|
--6----6----------------|--6----6----------6-----|--2--------------------|
--6----6----------------|--6----6----------6-----|--2--------------------|
--4----4----4--4--4--4--|--4----4----4--4-----4--|--0--------------------|
------------------------|------------------------|--------------------4--|


                    PM                                                       
  Q.     E  E  Q    E     Q    E  E  E  E  E  E     E  E  E  E  E  E  E  E   
---------0--0----------|-------------------------|-----------------0--------|
---------------0-------|--2-------2-----2-----4--|--L--------0--L-----0-----|
--4--------------------|--2-------2-----2-----4--|--L-----4--2--L--------2--|
--4--------------------|--2-------2-----2-----4--|--L--4-----2--L-----------|
-----------------------|-------4-----4-----4--2--|--L--------0--L-----------|
--4-----------------2--|-------2-----2-----2-----|--------------------------|


            PM PM PM PM              PM PM PM PM              PM PM PM PM  
  Q    Q    E  E  E  E     Q    Q    E  E  E  E     Q    Q    E  E  E  E   
------------------------|------------------------|------------------------|
------------------------|------------------------|--5----5----------------|
--9----9----------------|--9----9----------------|--6----6----------------|
--9----9----------------|--9----9----------------|--6----6----------------|
--7----7----------------|--7----7----------------|--4----4----4--4--4--4--|
------------0--0--0--0--|------------0--0--0--0--|------------------------|


            PM PM    PM              PM    PM                          
  Q    Q    E  E  E  E     Q    Q    E  E  E  E     H        H         
------------------------|------------------------|--------------------|
--5----5----------5-----|--2----2-------2-----2--|--L--------L--------|
--6----6----------6-----|--2----2-------2-----4--|--L--------L--------|
--6----6----------6-----|--2----2-------2-----4--|--L--------L--------|
--4----4----4--4-----4--|--0----0----0-----0--2--|--L--------L--------|
------------------------|------------------------|--------------------|


  Q    E  E  Q    E  E     Q    E  E  E  E  E  E     E  E  E  E  E  E  E  E   
------------------------|-------------------------|--------------------------|
--0-------2--L----------|--5-------7--7--x--x--5--|-----x--8--7--5--------5--|
--1-------3--L----------|--6-------8--8--x--x--5--|-----x--5--5--5--5-----5--|
--2-------4--L----------|--7-------9--9--x--x--7--|-----x--7--7--7--7-----7--|
--2-------4--L----------|--7-------9--9--x--x--0--|-----x--------------------|
--0----0----------0--0--|-------0-----------------|--------------------------|


  E  E  E  E  E  E  E  E     E  E   Q    Q    E  E   
--------------------------|----------------------7--|
-----7--9--7-----5--------|-----x--10----9----x--9--|
-----5--5--5-----5-----9--|-----x---9----9----x--9--|
-----5--7--7-----7-----9--|-----x---9----9----x--9--|
-----------------------7--|---------7----7-------7--|
-----------------------0--|-------------------------|


  E   E  E  E  E  E  E  E     E  E  E  E  E  E  E  E   
--L------------------------|--------------------------|
--L--10--9--7--9--------5--|-----x--8--7--5--------5--|
--L---9--9--9--9--------5--|-----x--5--5--5--5-----5--|
--L---9--9--9--9--6-----7--|-----x--7--7--7--7-----7--|
--L---7--7--7--7-----7-----|--------------------------|
---------------------------|--------------------------|




                                PM PM PM PM PM PM PM    PM                    
  E  E  E  E  E  E  E  E     E  E  E  E  E  E  E  E     E  E  E  E  H         
--------------------------|--------------------------|-----------------------|
-----7--9--7-----5-----4--|--L-----------------------|-----------2--L--------|
-----5--5--5-----5-----4--|--L-----------------------|-----------2--L--------|
-----7--7--7-----7-----4--|--L--4--4--4--4--4--4--4--|--4--4--4--2--L--------|
-----------------------2--|--L--2--2--2--2--2--2--2--|--2--2--2--0--L--------|
--------------------------|--------------------------|-----------------------|

SOLO
                                                     NH    
       Q    E     E  E  E   E  E        Q    Q    E  E    Q     
|-----------------------------|----------------------------|
|----------9g10--L--9---------|----------------------------|
|----------------------11--9--|--9g11----9----L--L--9----|
|-----------------------------|----------------------------|
|-----------------------------|----------------------------|
|-----------------------------|----------------------------|


                                     NH                  
  Q.         E  E  E   E  E          Q    H.             
-----------------------------|--------------------------|
----------9g10--L--9---------|--------------------------|
--9~------------------11--9--|--9g11----9~------------|
-----------------------------|--------------------------|
-----------------------------|--------------------------|
-----------------------------|--------------------------|


  Q.         E  E  E   E  E      Q    E     E  E  Q.       
-----------------------------|----------------------------|
----------9g10--L--9---------|--12------------------------|
--9/------------------11--9--|--------9--9g11--L--9\------|
-----------------------------|----------------------------|
-----------------------------|----------------------------|
-----------------------------|----------------------------|


    Q    E     E  E  E  Q       Q     E  E  E   E  E   E    
-----------------------------|-----------------------------|
-----------------------------|-----------9--L--10--L-------|
---------9--9g11--L--9--L----|--9----11---------------11~--|
-----------------------------|-----------------------------|
--/11------------------------|-----------------------------|
-----------------------------|-----------------------------|


                                                        |---3---|   |---3---|   
  Q.        E  E  E   E  E      S  S  S  S  S  S  S  S  E   E   E   E   E   E   
----------------------------|--------------------------------------------------|
---------9g10--L--9---------|--12-14-12-14-12-14-12-14-12--14--12--14--12--14--|
--L------------------11--9--|--------------------------------------------------|
----------------------------|--------------------------------------------------|
----------------------------|--------------------------------------------------|
----------------------------|--------------------------------------------------|


               T                 T                 T                 T          
   13 13 13 13 13 13 13 13 13 13 13 13 13 13 13 13 13 13 13 13 13 13 13 13 13 13
   S  S  S  S  S  S  S  S  S  S  S  S  S  S  S  S  S  S  S  S  S  S  S  S  S  S 
--------------------------------------------------------------------------------
--12-14-12-14-17-14-12-14-12-14-17-14-12-14-12-14-16-14-12-14-12-14-17-14-12-14-
--------------------------------------------------------------------------------
--------------------------------------------------------------------------------
--------------------------------------------------------------------------------
--------------------------------------------------------------------------------


                     NH       NH      NH                                  
      H        E     E  E     E       H        E      E      E   S     S  
---------------------------12--|--7--------L-------------------------|
--12g14--------L--12--L--------|----------------19g21--19g21--19pbr-17-|
---------------------------------|---------------------------------------|
---------------------------------|---------------------------------------|
---------------------------------|---------------------------------------|
---------------------------------|---------------------------------------|


                                             |--3--|  
   S  S  S  S  S  S  S  S  S  S  S  S  S  S  S  S  S  
-----------------16-17-16----------------16-17-16----|
--19-17-16-17-19----------19-17-19-17-19----------19-|
-----------------------------------------------------|
-----------------------------------------------------|
-----------------------------------------------------|
-----------------------------------------------------|


   |--3--|              |--6--|  |--6--|  |--6--|  |--6--|          
   S  S  S  T  T  T  T  S  S  S  S  S  S  S  S  S  S  S  S  Q       
--16-19-17-19-17-16-14-16-17-16-14-16-19-16-19-17-16-14-16-19b~----|
-------------------------------------------------------------------|
-------------------------------------------------------------------|
-------------------------------------------------------------------|
-------------------------------------------------------------------|
-------------------------------------------------------------------|


   W                                                                
--24~----------------|
---------------------|
---------------------|
---------------------|
---------------------|
---------------------|

            PM PM PM PM              PM PM    PM  
  Q    Q    E  E  E  E     Q    Q    E  E  E  E   
|------------------------|------------------------|
|--5----5----------------|--5----5----------5-----|
|--6----6----------------|--6----6----------6-----|
|--6----6----------------|--6----6----------6-----|
|--4----4----4--4--4--4--|--4----4----4--4-----4--|
|------------------------|------------------------|


                    PM                      PM                            
  Q.     E  E  Q    E     Q.     E  E  Q    E     Q    E  E  E  E  E  E   
---------0--L----------|---------0--0----------|-------------------------|
--0------------0-------|---------------0-------|--2-------2-----2-----4--|
--2--------------------|--4--------------------|--2-------2-----2-----4--|
--2--------------------|--4--------------------|--2-------2-----2-----4--|
--0--------------------|-----------------------|-------4-----4-----4--2--|
--------------------4--|--4-----------------2--|-------2-----2-----2-----|


                                       PM PM PM PM              PM PM PM PM  
  E  E  E  E  E  E  E  E     Q    Q    E  E  E  E     Q    Q    E  E  E  E   
-----------------0--------|------------------------|------------------------|
--L--------0--L-----0-----|------------------------|------------------------|
--L-----4--2--L--------2--|--9----9----------------|--9----9----------------|
--L--4-----2--L-----------|--9----9----------------|--9----9----------------|
--L--------0--L-----------|--7----7----------------|--7----7----------------|
--------------------------|------------0--0--0--0--|------------0--0--0--0--|


            PM PM PM PM              PM PM    PM              PM    PM     
  Q    Q    E  E  E  E     Q    Q    E  E  E  E     Q    Q    E  E  E  E   
------------------------|------------------------|------------------------|
--5----5----------------|--5----5----------5-----|--2----2-------2-----2--|
--6----6----------------|--6----6----------6-----|--2----2-------2-----4--|
--6----6----------------|--6----6----------6-----|--2----2-------2-----4--|
--4----4----4--4--4--4--|--4----4----4--4-----4--|--0----0----0-----0--2--|
------------------------|------------------------|------------------------|


  H        H           
--------------------|
--L--------L--------|
--L--------L--------|
--L--------L--------|
--L--------L--------|
--------------------|


  E  E  E  E  E  E  Q       E  E  E  E  E  E  Q     
-------------------------|-------------------------|
--0----------------------|--5--------7--L----------|
-----1-----3--L----------|-----6-----------8-------|
--------2--------4--L----|--------7-----------9----|
-------------------------|-------------------------|
-------------------------|-------------------------|


  E  E  E  E  E  E  E  S  S    E  E  E  E  E  E  Q     
----------------------------|--5--------7--L----------|
--5--------7--L-------------|-----5-----------7--7----|
-----4-----------6--L--4s-6-|--------6----------------|
--------6-------------------|-------------------------|
----------------------------|-------------------------|
----------------------------|-------------------------|


  E  E  E  E  E  E  E  S   S    E   E  E   E  E   E  E  S   S  
--4--------6--L--------------|--9---------11--L---------------|
-----5-----------7--L--------|-----10------------12--L--------|
--------4--------------9s-11-|---------9----------------9s-11-|
-----------------------------|--------------------------------|
-----------------------------|--------------------------------|
-----------------------------|--------------------------------|


   E   E  E  E   E   E  Q       W                   W                 
--10---------9---------------|-------------------|-------------------|
------10--------10s--5-------|-------------------|-------------------|
----------9-------------9----|--L----------------|--L----------------|
------------------------9----|--L----------------|--L----------------|
------------------------7----|--L----------------|--L----------------|
------------------------0----|--L----------------|--L----------------|


  W                                      
-------------------|-------------------||
-------------------|-------------------||
-------------------|-------------------||
-------------------|-------------------||
-------------------|-------------------||
-------------------|-------------------||


Duration Legend
---------------
W - whole
H - half
Q - quarter
E - 8th
S - 16th
T - 32nd
X - 64th
. - note dotted
|-n-|  - n-tuplets


Tablature Legend
----------------
L - tied note
x - dead note
g - grace note
(n) - ghost note
> - accentuded note
NH - natural harmonic
AH - artificial harmonic
TH - tapped harmonic
SH - semi harmonic
PH - pitch harmonic
h - hammer on
p - pull off
b - bend
br - bendRelease
pb - preBend
pbr - preBendRelease
brb - bendReleaseBend
\n/ - tremolo bar dip
\n - tremolo bar dive
-/n - tremolo bar Release up
/n\ - tremolo bar inverted dip
/n - tremolo bar return
-\n - tremolo bar Release down
S - shift slide
s - legato slide
/ -  slide into from below or out of upwards
\ -  slide into from above or out of downwards
~ - vibrato
W - wide vibrato
tr - trill
TP - tremolo picking
T - tapping
S - slap
P - pop
< - fade in
^ - brush up
v - brush down
Добавлено: 15.10.2013
Другие материалы по этой песне:

Страница создана 15.05.2012
http://primanota.ru/mr-big/stay-together-chords.htm
Привет, Гость.
Предлагаем пройти революционный курс по гитаре.
Подарок от PrimaNota.Ru, забирай!