PrimaNota.ru - самый крупный в мире бесплатный архив песенных текстов, аккордов, табулатур и нот


Mr Big - Burn - бас-таба, видео

Регистрация Запомнить меня
Войти через:  Facebook Google Twitter Vk Yandex Mail.ru

Mr Big - Burn - бас-таба, видео

Печатать
Просмотров: 154
Уроки эстрадного вокала в Санкт-Петербурге
-------------------------------------------------------------------------------
                             Burn - Mr. Big
-------------------------------------------------------------------------------
Tabbed by: Wesselrockt
E-mail: wessellangedijk@hotmail.com

Tuning: standard

Couldn't figure out some parts, I will update them later. 
Corrections or suggestions are welcome, just by sending me an e-mail. 

G|---------------------------------------------------------------------------|
D|---------------------------------------------------------------------------|
A|---------------------------------------------------------------------------|
E|---3/-----------------------------------3-3-3-3/---------------------------|

G|---------------------------------------------------------------------------|
D|---------------------------------------------------------------------------|
A|---------------------------------------------------------------------------|
E|---3-3-3-3-3-3-3-3-3-3-3-3-3-3-3-3-3-3-3-3-3-3-3-3-3-3-3-3-1---1-1---------|

G|---------------------------------------------------------------------------|
D|---------------------------------------------------------------------------|
A|---------------------------------------------------------------------------|
E|---3-3-3-3-3-3-3-3-3-3-3-3-3-3-3-3-1-1-1-1-1-1-1-1-1-1-1-1-1-1-1-1---------|


G|---------------------------------------------------------------------------|
D|---------------------------------------------------------------------------|
A|-----------------------------------3-3-3-3-3-3-3-3-3-3-3-3-3-3-3-3---------|
E|---3-3-3-3-3-3-3-3-3-3-3-3-3-3-3-3-----------------------------------------|

G|---------------------------------------------------------------------------|
D|---------------------------------------------------------------------------|
A|---------------------------------------------------------------------------|
E|---3-3-3-3-3-3-3-3-3-3-3-3-3-3-3-3-3-3-3-3-3-3-3-3-3-3-3-3-3-3-3-3---------|

G|---------------------------------------------------------------------------|
D|---------------------------------------------------------------------------|
A|---6-6-6-6-6-6-6-6-6-6-6-6-6-6-6-6-----------------------------------------|
E|-----------------------------------3-3-3-3-3-3-3-3-3-3-3-3-3-3-3-3---------|

G|---------------------------------------------------------------------------|
D|----------------------------------------------12------12------12-----------|
A|---6-6-6-6-6-6-6-6-6-6-6-6-6-6-6-6-5-5-5-5--12------12------12-------------|
E|---------------------------------------------------------------------------|

G|-------15------15-----17-----12-----12-----12-----13-----13-----13---------|
D|-----17------17-----17-----13-----13-----13-----15-----15-----15-----------|
A|---17------17-----17-----13-----13-----13-----15-----15-----15-------------|
E|---------------------------------------------------------------------------|
                                                                             |     
G|-------10-----10-----10-----------12-----12-----12-----8-----8-----8-------|
D|-----12-----12-----12-----------13-----13-----13-----10----10----10--------|3x
A|---12-----12-----12-----------13-----13-----13-----10----10----10----------|
E|---------------------------------------------------------------------------|
                                                                             |
G|----9---9--11--11-13--13-15------------------------------------------------|
D|----10--10-12--12-12--12-12------------------------------------------------|
A|----10--10-----------------------------------------------------------------|
E|---------------------------------------------------------------------------|



G|----9---9--11--11-13--13-15------------------------------------------------|
D|----10--10-12--12-12--12-12------------------------------------------------|
A|---------------------------------------------------------------------------|
E|---------------------------------------------------------------------------|

G|---------------------------------------------------------------------------|
D|---5-5-5-5-5---------------5-5-5-5-5---------------------------------------|
A|---------------3-3-3-3-3---------------3-3-3-3-3---------------------------|
E|---------------------------------------------------------------------------|

G|---------------------------------------------------------------------------|
D|---------------------------------------------------------------------------|
A|---5---6---7---8---9-------------------------------------------------------|
E|------------------------3/-------------------------------------------------|

G|---------------------------------------------------------------------------|
D|---------------------------------------------------------------------------|
A|---------------------------------------------------------------------------|
E|---3/-----------------------------------3-3-3-3/---------------------------|

G|---------------------------------------------------------------------------|
D|---------------------------------------------------------------------------|
A|---------------------------------------------------------------------------|
E|---3-3-3-3-3-3-3-3-3-3-3-3-3-3-3-3-3-3-3-3-3-3-3-3-3-3-3-3-1---1-1---------|

Start bass solo

G|------------------------10----------10-------------------------------------|
D|--12--12--12--12----/12----12-10-12---10h12----6-8-6---6-8-----------------|
A|-----------------------------------------------------8-----8---------------|
E|---------------------------------------------------------------------------|

G|----------------------------------------------------------------------------|
D|--12h14-10h12-8h10-6h8---------------------3-5-3-5p3---3-5-----3-5-3-5p3--3-5
A|-----------------------9h11-7h9-5h7-3h5--5-----------5-------5-----------5--|
E|----------------------------------------------------------------------------|

G|---17-17-17-17-17-17-17-17-17-17--15-13-----------13-17-15-----------------|
D|----------------------------------------15-----15--------------------------|
A|-------------------------------------------15------------------------------|
E|---------------------------------------------------------------------------|
 
Could't figure out this "fast" part

G|--11--11-11-11--12--14--12--11-12-14----10--10-10-10---9--10--9----0///----|
D|--12--12-12-12--12--12--12--12-12-12----10--10-10-10--10--10--10---5-------|
A|---------------------------------------------------------------------------|
E|---------------------------------------------------------------------------|

G|--11--11-11-11--12--14--12--11-12-14--10--10-10-10--9----9-10-9----9-10-9--|
D|--12--12-12-12--12--12--12--12-12-12--10--10-10-10----12--------12--------12|
A|---------------------------------------------------------------------------|
E|---------------------------------------------------------------------------|

G|--7-10-7--------------8-10-8------------8--10-8--------------7-8-7----7----|
D|---------10-8----8-10--------10----8-10---------10-8-7---7-8-------10------|
A|--------------10----------------10---------------------8-------------------|
E|---------------------------------------------------------------------------|

G|--15-14-12----------12--15-14-12-14-12-14-15-17-14-15-17--|
D|-----------15-13-15---------------------------------------|
A|----------------------------------------------------------|
E|----------------------------------------------------------|

G|--10----------11----------14-15-14-12-14-|
D|-----12----12----12----12----------------|
A|--------12----------12-------------------|
E|-----------------------------------------|

G|--12-15-12-----------------12-15-12----------------------------------------|
D|-----------13-12----12-15-----------15-13----13----15-13-------------------|
A|-----------------13-----------------------15----15-------15-13-12----13-15-|
E|------------------------------------------------------------------13-------|

G|---------------------------------------------------------------------------|
D|--12-14-12----12----------------------------------------|
A|-----------15----------------------------------------------------------------|
E|---------------------------------------------------------------------------|

G|--15-14-12----------12--15-14-12-14-12-14-15-17-14-15-17--|
D|-----------15-13-15---------------------------------------|
A|----------------------------------------------------------|
E|----------------------------------------------------------|

G|--10----------12----------12----------15-|
D|-----12----12----12----12----12----12----|
A|--------12----------12----------12-------|
E|-----------------------------------------|
    T  T T  T  T T  T  T T  T  T T  T  T T  T  T T  T T T  T T T
G|--19-7-5--17-7-5--15-7-5--14-7-5--12-7-5--11-7-5--9-7-5--8-7-5-------------|
D|---------------------------------------------------------------------------|
A|---------------------------------------------------------------------------|
E|---------------------------------------------------------------------------|

|Couldn't figure out this part|

G|--19--20--21--22--22^23--22^24~~~~-----|
D|---------------------------------------|
A|---------------------------------------|
E|---------------------------------------|

G|---------------------------------------------------------------------------|
D|---------------------------------------------------------------------------|
A|---------------------------------------------------------------------------|
E|---3-3-3-3-3-3-3-3-3-3-3-3-3-3-3-3-3-3-3-3-3-3-3-3-3-3-3-3-1---1-1---------|

Start drum solo
G|----------------------|
D|----------------------|
A|---------------3~~----|
E|---3~~-1~~-3~~--------|

G|---------------------------------------------------------------------------|
D|---------------------------------------------------------------------------|
A|---------------------------------------------------------------------------|
E|---3-3-3-3-3-3-3-3-3-3-3-3-3-3-3-3-3-3-3-3-3-3-3-3-3-3-3-3-1---1-1---------|

G|----------------------|
D|----------------------|
A|-----------1-----3----|
E|---3~~-1~~----1-------|
G|----------------------|
G|------------------------------------------------------------|
D|------------------------------------------------------------|
A|-----------------------------------6-6-6-6-6-6-6-6---9-7-6--|
E|---3-3-3-3-3-3-3-3-3-3-3-3-3-3-3-3--------------------------|

G|---------------------------------------|
D|---------------------------------------|
A|--3-3-3-3-3-3-3-3----------------------|
E|-------------------3\---3-3-3-3~-------|

G|---------------------------------------------------------------------------|
D|---------------------------------------------------------------------------|
A|---------------------------------------------------------------------------|
E|---3-3-3-3-3-3-3-3-3-3-3-3-3-3-3-3-3-3-3-3-3-3-3-3-3-3-3-3-1---1-1---------|

G|------------------------------------------------------------|
D|------------------------------------------------------------|
A|-----------3---1---6---5---6---5---6---5---6---5---6---5----|
E|---3---1----------------------------------------------------|

G|--------------------------------------|
D|--------------------------------------|
A|---------------------10 x many times--|
E|---3 x many  times--------------------|


| /  slide up
| \  slide down
| h  hammer-on
| p  pull-off
| ~  vibrato
| +  harmonic
| x  Mute note
| T  Tapping
===============================================================================
Добавлено: 29.07.2015
Другие материалы по этой песне:

Страница создана 26.03.2012
http://primanota.ru/mr-big/burn-chords.htm
Привет, Гость.
Предлагаем пройти революционный курс по гитаре.
Подарок от PrimaNota.Ru, забирай!