PrimaNota.ru - самый крупный в мире бесплатный архив песенных текстов, аккордов, табулатур и нот


Mps - New Song - таба, видео

Регистрация Запомнить меня
Войти через:  Facebook Google Twitter Vk Yandex Mail.ru

Mps - New Song - таба, видео

Печатать
Просмотров: 51
-------------------------------------------------------------------------------
                             SONG NAME - Band Name
-------------------------------------------------------------------------------
Tabbed by:
E-mail:

Tuning:

e|------0--------------------------------------------------------------------|
B|----0---0------------------------------------------------------------------|
G|--0-------0----------------------------------------------------------------|
D|---------------------------------------------------------------------------|
A|---------------------------------------------------------------------------|
E|0--------------------------------------------------------------------------|(x3)

e|------0-----0---0----------------------------------------------------------|
B|----0-----0---0------------------------------------------------------------|
G|--0-----0----0-------------------------------------------------------------|
D|---------------------------------------------------------------------------|
A|---------------------------------------------------------------------------|
E|0--------------------------------------------------------------------------|

e|------3--------------------------------------------------------------------|
B|----0---0------------------------------------------------------------------|
G|--0-------0----------------------------------------------------------------|
D|---------------------------------------------------------------------------|
A|---------------------------------------------------------------------------|
E|3--------------------------------------------------------------------------|(x3)

e|------3----3---3------------------------------------------------------------|
B|----0----0---0--------------------------------------------------------------|
G|--0----0----0---------------------------------------------------------------|
D|----------------------------------------------------------------------------|
A|----------------------------------------------------------------------------|
E|3---------------------------------------------------------------------------|

e|------2--------------------------------------------------------------------|
B|----3---3------------------------------------------------------------------|
G|--2-------2----------------------------------------------------------------|
D|---------------------------------------------------------------------------|
A|---------------------------------------------------------------------------|
E|0--------------------------------------------------------------------------|(x3)

e|----2--2--2----------------------------------------------------------------|
B|---3--3--3-----------------------------------------------------------------|
G|--2--2--2------------------------------------------------------------------|
D|---------------------------------------------------------------------------|
A|---------------------------------------------------------------------------|
E|0--------------------------------------------------------------------------|

Repeat 3 times end with


E|0--------------------------------------------------------------------------|
B|---------------------------------------------------------------------------|
G|---------------------------------------------------------------------------|
D|---------------------------------------------------------------------------|
A|---------------------------------------------------------------------------|
E|---------------------------------------------------------------------------|
Добавлено: 19.12.2015
Другие материалы по этой песне:
  • Аккорды и текст

Страница создана 19.12.2015
http://primanota.ru/mps/new-song-chords.htm
Привет, Гость.
Предлагаем пройти революционный курс по гитаре.
Подарок от PrimaNota.Ru, забирай!