PrimaNota.ru - самый крупный в мире бесплатный архив песенных текстов, аккордов, табулатур и нот


Mozes And The Firstborn - Bloodsucker - таба, видео

Регистрация Запомнить меня
Войти через:  Facebook Google Twitter Vk Yandex Mail.ru

Mozes And The Firstborn - Bloodsucker - таба, видео

Печатать
Просмотров: 43
Авторы: Mozes and the Firstborn

-------------------------------------------------------------------------------
                             Bloodsucker - Mozes and the Firstborn
-------------------------------------------------------------------------------
Tabbed by: sabrespinner
E-mail: para4life77@gmail.com

Tuning: Standard

e|---0-0-----------------------0-0-------------------------------------------|
B|-------8-7-----------------------8-7---------------------------------------|
G|-----------9-----7---7---------------9-----7---7---------------------------|
D|---------------9---9---9-----------------9---9-----------------------------|
A|---------------------------------------------------------------------------|
E|---------------------------------------------------------------------------| x2

e|---8---7-7---5-5---7-7---8-------------------------------------------------|
B|---8---7-7---5-5---7-7---8-------------------------------------------------|
G|---9---8-8---6-6---8-8---9-------------------------------------------------|
D|---10--9-9---7-7---9-9---10------------------------------------------------|
A|---10--9-9---7-7---9-9---10------------------------------------------------|
E|---8---7-7---5-5---7-7---8-------------------------------------------------| x2

e|-0-----0-----8-----5-------------------------------------------------------|
B|-5-----3-----8-----5-------------------------------------------------------|
G|-0-----0-----9-----6-------------------------------------------------------|
D|-6-----4-----10----7-------------------------------------------------------|
A|-7-----5-----10----7-------------------------------------------------------|
E|-7-----5-----8-----5-------------------------------------------------------| x4

e|---0-0-----------------------0-0-------------------------------------------|
B|-------8-7-----------------------8-7---------------------------------------|
G|-----------9-----7---7---------------9-----7---7---------------------------|
D|---------------9---9---9-----------------9---9-----------------------------|
A|---------------------------------------------------------------------------|
E|---------------------------------------------------------------------------| x4

e|---8---7-7---5-5---7-7---8-------------------------------------------------|
B|---8---7-7---5-5---7-7---8-------------------------------------------------|
G|---9---8-8---6-6---8-8---9-------------------------------------------------|
D|---10--9-9---7-7---9-9---10------------------------------------------------|
A|---10--9-9---7-7---9-9---10------------------------------------------------|
E|---8---7-7---5-5---7-7---8-------------------------------------------------| x2

e|-0-----0-----8-----5-------------------------------------------------------|
B|-5-----3-----8-----5-------------------------------------------------------|
G|-0-----0-----9-----6-------------------------------------------------------|
D|-6-----4-----10----7-------------------------------------------------------|
A|-7-----5-----10----7-------------------------------------------------------|
E|-7-----5-----8-----5-------------------------------------------------------| x4

e|---------------------------------------------------------------------------|
B|---------------------------------------------------------------------------|
G|---------------------------------------------------------------------------|
D|---5-------10--------------------------------------------------------------|
A|---5-------10--------------------------------------------------------------|
E|---3--x8---8--x8-----------------------------------------------------------| x6

e|---0-0-----------------------0-0-------------------------------------------|
B|-------8-7-----------------------8-7---------------------------------------|
G|-----------9-----7---7---------------9-----7---7---------------------------|
D|---------------9---9---9-----------------9---9-----------------------------|
A|---------------------------------------------------------------------------|
E|---------------------------------------------------------------------------| x4

e|---8---7-7---5-5---7-7---8-------------------------------------------------|
B|---8---7-7---5-5---7-7---8-------------------------------------------------|
G|---9---8-8---6-6---8-8---9-------------------------------------------------|
D|---10--9-9---7-7---9-9---10------------------------------------------------|
A|---10--9-9---7-7---9-9---10------------------------------------------------|
E|---8---7-7---5-5---7-7---8-------------------------------------------------| x2

e|---------------------------------------------------------------------------|
B|---------------------------------------------------------------------------|
G|----14-16-16--14-16-16--14-16----------------------------------------------|
D|---------------------------------------------------------------------------|
A|---------------------------------------------------------------------------|
E|---------------------------------------------------------------------------|

e|---------------------------------------------------------------------------|
B|---------------------------------------------------------------------------|
G|---------------------------------------------------------------------------|
D|---5-------10--------------------------------------------------------------|
A|---5-------10--------------------------------------------------------------|
E|---3--x8---8--x8-----------------------------------------------------------| x4


************************************

| /   slide up
| \   slide down
| h   hammer-on
| p   pull-off
| ~   vibrato
| +   harmonic
| x   Mute note
| b   Bend
| pb  Pre-bend
| br  Bend release
| pbr Pre-bend release
| brb Bend release bend

************************************
Добавлено: 08.08.2015
Вам также может быть интересно:
Другие материалы по этой песне:
  • Аккорды и текст

Страница создана 08.08.2015
http://primanota.ru/mozes-and-the-firstborn/bloodsucker-chords.htm
Привет, Гость.
Предлагаем пройти революционный курс по гитаре.
Подарок от PrimaNota.Ru, забирай!