PrimaNota.ru - самый крупный в мире бесплатный архив песенных текстов, аккордов, табулатур и нот


Моцарт Вольфганг Амадей - Queen Of The Night Aria - таба, видео

Регистрация Запомнить меня
Войти через:  Facebook Google Twitter Vk Yandex Mail.ru

Моцарт Вольфганг Амадей - Queen Of The Night Aria - таба, видео

Печатать
Просмотров: 210
For 4 Guitars
                    

This is a very hard song to play especially because it was composed for orchestra and
voice. The hardest guitar part is the "Gtr I" or Guitar One. You can't play guitar one
unless you have a guitar with at least 24 frets. For a midi of it go to
http://www.aria-database.com/sounds/midi/mflute14a_queen.mid. Good Luck with this cause
you're going to need it.
Hope you like it! Please email any corrections to aldragon92@yahoo.com.
 


Music by Wolfgang Amadeus Mozart
Arranged by Alex Mondragon
Transcribed by Alex Mondragon

Gtr I (E A D G B E) 
Gtr II (E A D G B E) 
Gtr III (E A D G B E) 
Gtr IV (E A D G B E) 

  Q=143
 4/4
  Gtr II
  S S S S S S S S S S S S S S S S   S S S S S S S S S S S S S S S S
|---------------------------------|----------------------------------|
|---3---3---3---3---3---3---3---3-|---3---3---3---3---3---3---3---3--|
|-2---2---2---2---2---2---2---2---|-2---2---2---2---2---2---2---2----|
|-3---3---3---3---3---3---3---3---|-3---3---3---3---3---3---3---3----|
|---------------------------------|----------------------------------|
|---------------------------------|----------------------------------|
|
| Gtr III
| H               Q       S S S S   E   E   Q       Q       Q
|---------------------------------|-------------------------0--------|
|---------------------------------|----------------------------------|
|---------------------------------|----------------------------------|
|---------------------------------|----------------------------------|
|---------------------------0-2-4-|-5--------------------------------|
|---------------------------------|---------5-------1----------------|
|
| Gtr IV
| W                                 H               E   S S S S S S
|---------------------------------|---------------------5---5---5----|
|---------------------------------|----------------------------------|
|---------------------------------|----------------------------------|
|---------------------------------|----------------------------------|
|---------------------------------|----------------------------------|
|---------------------------------|----------------------------------|


  Gtr I
   E   E    E   E    E   E    E   E      Q       Q        Q        S  S S  S
|-10----------------13-------12-------|-10---------------13-------12-10-9-10-|
|-10-------10-------15-------14-------|-10---------------15------------------|
|-10-------10-------14-------12-------|-10---------------14------------------|
|----------12-------------------------|------------------15------------------|
|-------------------------------------|--------------------------------------|
|-------------------------------------|--------------------------------------|
|
| Gtr II
|  S S S S  S S S S  S S S S  S S S S    S S S S S S S S  S S S S  S  S S  S
|-------------------------------------|--------------------------------------|
|-------------------------------------|--------------------------------------|
|-------------------------------------|--------------------------------------|
|-------------------------------------|-------------------7---7----7----7----|
|--5---5----5---5----5---5----5---5---|--5---5---5---5----8---8----8----8----|
|-------------------------------------|--------------------------------------|
|
| Gtr III
|  S S S S  S S S S  S S S S  S S S S    S S S S S S S S  S S S S  S  S S  S
|--0---0----0---0----0---0----0---0---|--0---0---0---0-----------------------|
|-------------------------------------|--------------------------------------|
|-------------------------------------|--------------------------------------|
|-------------------------------------|-------------------0---0----0----0----|
|-------------------------------------|--------------------------------------|
|-------------------------------------|--------------------------------------|


   Q       Q        Q        S  S  S  S
|--9---------------12-------13-12-10-12-|
|-11---------------11-------------------|
|-12---------------12-------------------|
|---------------------------------------|
|---------------------------------------|
|---------------------------------------|
|
|  S S S S S S S S  S S S S  S  S  S  S
|---------------------------------------|
|--2---2---2---2----2---2----2-----2----|
|--3---3---3---3----3---3----3-----3----|
|--5---5---5---5----5---5----5-----5----|
|---------------------------------------|
|---------------------------------------|
|
|  S S S S S S S S  S S S S  S  S  S  S
|---------------------------------------|
|---------------------------------------|
|---------------------------------------|
|--2---2---2---2----2---2----2-----2----|
|---------------------------------------|
|---------------------------------------|


   Q       Q        Q        S  S  S  S
|-10---------------17-------15-13-12-10-|
|-10---------------18-------------------|
|------------------19-------------------|
|------------------19-------------------|
|---------------------------------------|
|---------------------------------------|
|
|  S S S S S S S S  S S S S  S  S  S  S
|---------------------------------------|
|--3---3---3---3----3---3----3-----3----|
|--2---2---2---2----2---2----2-----2----|
|---------------------------------------|
|---------------------------------------|
|---------------------------------------|
|
|  S S S S S S S S  S S S S  S  S  S  S
|---------------------------------------|
|---------------------------------------|
|---------------------------------------|
|--3---3---3---3----3---3----3-----3----|
|---------------------------------------|
|---------------------------------------|


   S S  S S  S S  S S  S S  S S  S S  S S
|-11---11---11---11---14---14---14---14---|
|-11---11---11---11---13---13---13---13---|
|-----------------------------------------|
|-----------------------------------------|
|-----------------------------------------|
|-----------------------------------------|
|
|  S S  S S  S S  S S  S S  S S  S S  S S
|-----------------------------------------|
|-----------------------------------------|
|--0----0----0----0----2----2----2----2---|
|-----------------------------------------|
|-----------------------------------------|
|-----------------------------------------|
|
|  S S  S S  S S  S S  S S  S S  S S  S S
|-----------------------------------------|
|-----------------------------------------|
|-----------------------------------------|
|-----------------------------------------|
|----------------------0----0----0----0---|
|--3----3----3----3-----------------------|


   S S  S S  S S  S S  S S  E    +S  S  S S
|-15---15---17---17---18---18---(18)---18---|
|-15---15---15---15---15---15---(15)---15---|
|-------------------------------------------|
|-------------------------------------------|
|-------------------------------------------|
|-------------------------------------------|
|
|  S S  S S  S S  S S  S S  E    +S  S  S S
|-------------------------------------------|
|-------------------------------------------|
|--3----3-----------------------------------|
|------------4----4----5----5----(5)----5---|
|-------------------------------------------|
|-------------------------------------------|
|
|  S S  S S  S S  S S  S S  S S   S  S  S S
|-------------------------------------------|
|-------------------------------------------|
|-------------------------------------------|
|-------------------------------------------|
|--1----1-----------------------------------|
|------------2----2----3----3-----3-----3---|


   S S  S S  S S  S S  S S  S S  S S  S S    E E  Q   Q   Q
|-18---18---15---15-----------------------|------------------|
|-16---16-------------16---16---15---15---|-14---13--15--17--|
|-----------15---15-------------16---16---|-14-------15--17--|
|---------------------17---17---15---15---|-14-----------20--|
|-----------------------------------------|------------------|
|-----------------------------------------|------------------|
|
|  S S  S S  S S  S S  S S  S S  S S  S S    E E  Q   Q   Q
|-----------------------------------------|------------------|
|-----------------------------------------|---------------5--|
|-----------------------------------------|-------5---7---0--|
|--5----5----5----5----5----5----6----6---|--7----7---6------|
|-----------------------------------------|------------------|
|-----------------------------------------|------------------|
|
|  S S  S S  S S  S S  S S  S S  S S  S S    E E  Q   Q   Q
|-----------------------------------------|------------------|
|-----------------------------------------|------------------|
|-----------------------------------------|------------------|
|-----------------------------------------|------------------|
|-----------------------------------------|------------------|
|--3----3----3----3----3----3----4----4---|--5----5---4---3--|


   E E  S S E    S S E    S S E      S S E    S S E    S S E    S S E
|---------------------------------|-13-------------------------13--------|
|-18---------------------13-------|-------------------13-----------------|
|-17------------14----------------|----------14--------------------------|
|-19---15-------------------------|--------------------------------------|
|---------------------------------|--------------------------------------|
|---------------------------------|--------------------------------------|
|
|  E E  S S S S  S S S S  S S S S    S S S S  S S S S  S S S S  S S S S
|---------------------------------|--------------------------------------|
|--6------1---1----1---1----1---1-|----1---1----1---1----1---1----1---1--|
|-------2---2----2---2----2---2---|--2---2----2---2----2---2----2---2----|
|--3----3---3----3---3----3---3---|--3---3----3---3----3---3----3---3----|
|---------------------------------|--------------------------------------|
|---------------------------------|--------------------------------------|
|
|  E E  Q        H                   W
|---------------------------------|--------------------------------------|
|---------------------------------|--------------------------------------|
|---------------------------------|--------------------------------------|
|---------------------------------|--------------------------------------|
|---------------------------------|--------------------------------------|
|--1------------------------------|--------------------------------------|


   E    S S  E    S S  E   S S E   S S   S S S S  S S  S S  S S  S S  S S  S S
|-17---15---13---12---10---8---6---5---|-6--------6---10---15-------------15---|
|--------------------------------------|-----8-----------------------15--------|
|--------------------------------------|------------------------15-------------|
|--------------------------------------|---------------------------------------|
|--------------------------------------|---------------------------------------|
|--------------------------------------|---------------------------------------|
|
|  S S  S S  S S  S S  S S S S S S S S   S S S S  S S  S S  S S  S S  S S  S S
|--------------------------------------|---------------------------------------|
|----1----1----1----1----1---1---1---1-|---3---3----3----3----3----3----3----3-|
|--2----2----2----2----2---2---2---2---|-3---3----3----3----3----3----3----3---|
|--3----3----3----3----3---3---3---3---|-3---3----3----3----5----5----5----3---|
|--------------------------------------|---------------------------------------|
|--------------------------------------|---------------------------------------|
|
| Gtr IV
|  E    S S  E    S S  E   S S E   S S   Q        Q         Q         E    E
|-17---15---13---12---10---8---6---5---|-6-------15-----------------------15---|
|--------------------------------------|---------------------------------------|
|--------------------------------------|---------------------------------------|
|--------------------------------------|---------------------------------------|
|--------------------------------------|---------------------------------------|
|--------------------------------------|---------------------------------------|


   E    S S  E    S S  E    S S E   E
|-18---17---15---13---12---10---8---6---|
|---------------------------------------|
|---------------------------------------|
|---------------------------------------|
|---------------------------------------|
|---------------------------------------|
|
|  S S  S S  S S  S S  S S  S S S S S S
|---------------------------------------|
|----1----1----1----1----1----1---1---1-|
|--0----0----0----0----0----0---0---0---|
|--2----2----2----2----2----2---2---2---|
|---------------------------------------|
|---------------------------------------|
|
|  E    S S  E    S S  E    S S E   E
|-18---17---15---13---12---10---8---6---|
|---------------------------------------|
|---------------------------------------|
|---------------------------------------|
|---------------------------------------|
|---------------------------------------|


  S S E    S S S S   S  S  S S  S S  S S
|-5--------5---8----13----17---20--------|
|-----------------------------------18---|
|----------------------------------------|
|----------------------------------------|
|----------------------------------------|
|----------------------------------------|
|
| S S S S  S S S S   S  S  S S  E    E
|----------------------------------------|
|---1---1----1---1------1----1--1----1---|
|-2---2----2---2--------2----2--2----2---|
|-3---3----3---3-----1-----1----1--------|
|----------------------------------------|
|----------------------------------------|
|
| Q        Q        +E     E    Q
|-5-------13-------(13)------------------|
|----------------------------------------|
|----------------------------------------|
|----------------------------------------|
|----------------------------------------|
|----------------------------------------|


   Q   S S E  S S E  S S E    S S  S S  S S  S S  S S  S S  S S  S S
|-18-----------------------|-18---18---18---18-----------------------|
|-------------------18-----|-18---18---18---18---22---22---22---22---|
|------------19------------|---------------------22---22---22---22---|
|-----20-------------------|-20---20---20---20---19---19---19---19---|
|--------------------------|-----------------------------------------|
|--------------------------|-----------------------------------------|
|
|  Q   Q      H               S S  S S  S S  S S  S S  S S  S S  S S
|--------------------------|-----------------------------------------|
|--3-----------------------|--3----3----3----3----1----1----1----1---|
|--3-----------------------|-----------------------------------------|
|--3-----------------------|-----------------------------------------|
|--------------------------|-----------------------------------------|
|--------------------------|-----------------------------------------|
|
| Gtr III
|  Q   Q      H               S S  S S  S S  S S  S S  S S  S S  S S
|--------------------------|-----------------------------------------|
|--------------------------|-----------------------------------------|
|--------------------------|-----------------------------------------|
|--0-----------------------|--0----0----0----0-----------------------|
|--------------------------|----------------------3----3----3----3---|
|--------------------------|-----------------------------------------|


   S S  E    S S  S S  S S  E    +S  S  S S    Q   Q   H
|-------------------------------------------|-----------------------|
|-21---21-------------21---21---(21)--------|-----------------------|
|-22---22---22---22---22---22---(22)---22---|-21--------------------|
|----------------24-------------------------|-----------------------|
|--------------------------------------23---|-22--------------------|
|-------------------------------------------|-----------------------|
|
|  S S  S S  S S  S S  S S  S S   S  S  S S    E E E E E E S S S S
|-------------------------------------------|-----------------------|
|--0----0----0----0----0----0-----0-----0---|--1-1-0-1-0-1----------|
|-------------------------------------------|--------------3--------|
|-------------------------------------------|------------------5----|
|-------------------------------------------|-----------------------|
|-------------------------------------------|-----------------------|
|
|  S S  S S  S S  S S  S S  S S   S  S  S S    E E E E E E S S S S
|-------------------------------------------|-----------------------|
|-------------------------------------------|-----------------------|
|-------------------------------------------|-----------------------|
|-------------------------------------------|-----------------------|
|--2----2----2----2----2----2-----2-----2---|--3-3-2-3-2-3-1--------|
|-------------------------------------------|------------------3----|


   Q   E    S  S  E E E    S  S    E  E Q    Q    E    E
|-------------------------------|--------------------------|
|----------20-18-20-------22-20-|-22-----------------------|
|-22----------21-22----------22-|-24-----------------------|
|-22-------------22-------------|-22------------------22---|
|-------------------------------|--------------------------|
|-------------------------------|--------------------------|
|
|  E E S S  S  S  E E S S  S  S    E  E E  E E  E S S  S S
|-------------------------------|--------------------------|
|-------------------------------|--------------------------|
|----5--------------------------|--------------------------|
|--7---7------------5-----------|----10-9-10-9-10-8--------|
|-----------8-----7---7---------|--8------------------10---|
|--------------------------8----|--------------------------|
|
|  E E S S  S  S  E E S S  S  S    E  E E  E E  E S S  S S
|-------------------------------|--------------------------|
|----1--------------------------|--------------------------|
|------2------------0-----------|--------------------------|
|-----------3-----2---2---------|--3-----------------------|
|--0-----------------------3----|-----3-2--3-2--3-1--------|
|-------------------------------|----------------------3---|


   Q     E    S  S  E  E  E    S  S
|------------------------------------|
|------------20-18-20---------22-20--|
|-22------------21-22------------22--|
|-22---------------------------------|
|------------------------------------|
|------------------------------------|
|
|  E  E  S S  S  S  E  E  S S  S  S
|------------------------------------|
|------------------------------------|
|------------------------------------|
|----10------------------------------|
|-12----12------------10-------------|
|------------13----12----12----8-----|
|
|  E  E  S S  S  S  E  E  S S  S  S
|------------------------------------|
|-----1------------------------------|
|--------2-------------0-------------|
|-------------3-----2-----2----------|
|--0---------------------------3-----|
|------------------------------------|


   S S  S S  S S  S S  S S  S S  S S  S S
|-----------------------------------------|
|-22---22---22---22---22---22---22---22---|
|-24--------------------------------------|
|-22---22---22---22---22---22---22---22---|
|-----------------------------------------|
|-----------------------------------------|
|
|  S S  S S  S S  S S  S S  S S  S S  S S
|-----------------------------------------|
|--6----6----6----6----6----6----6----6---|
|-----------------------------------------|
|-----------------------------------------|
|-----------------------------------------|
|-----------------------------------------|
|
|  E    E    Q         H
|-----------------------------------------|
|-----------------------------------------|
|-----------------------------------------|
|-----------------------------------------|
|-----------------------------------------|
|--1--------------------------------------|


   S S  S S  S S  S S  S S  S S  S S  S S
|------20---20---20---20---20---20---20---|
|------20---20---20---20---20---20---20---|
|-24--------------------------------------|
|-22--------------------------------------|
|-----------------------------------------|
|-----------------------------------------|
|
|  S S  S S  S S  S S  S S  S S  S S  S S
|------12---12---12---12---12---12---12---|
|--5--------------------------------------|
|-----------------------------------------|
|-----------------------------------------|
|-----------------------------------------|
|-----------------------------------------|
|
|  W
|-----------------------------------------|
|-----------------------------------------|
|-----------------------------------------|
|-----------------------------------------|
|-----------------------------------------|
|-----------------------------------------|


   E   S S  S S  S S  S S  S S  S  S  S  S
|------------------------------------------|
|-22---------------------------------------|
|-----22---22---22---22---22---22----22----|
|------------------------------------------|
|-----24---24---24---24---24---24----24----|
|------------------------------------------|
|
|  E   S S  S S  S S  S S  S S  S  S  S  S
|-10---------------------------------------|
|------------------------------------------|
|------------------------------------------|
|-----12---12---12---12---12---12----12----|
|------------------------------------------|
|------------------------------------------|
|
| Gtr IV
|  Q.            E    Q         S  S  S  S
|------------------------------------------|
|-18---------------------------20-------20-|
|------------------------------22-21-22----|
|------------------------------------------|
|------------------------------------------|
|------------------------------------------|


   E    S S  S S  S S  S S  S S  S S  S S
|------17---17---17---17---17---17---17---|
|------17---17---17---17---17---17---17---|
|-21--------------------------------------|
|-19--------------------------------------|
|-----------------------------------------|
|-----------------------------------------|
|
|  E    S S  S S  S S  S S  S S  S S  S S
|-------8----8----8----8----8----8----8---|
|-----------------------------------------|
|-----------------------------------------|
|-10--------------------------------------|
|-----------------------------------------|
|-----------------------------------------|
|
|  S S  S S  S S  S S  S S  S S  S S  S S
|-----------------------------------------|
|-22---22---22---22---22---22---22---22---|
|-----------------------------------------|
|-----------------------------------------|
|-----------------------------------------|
|-----------------------------------------|


   E   S S  S S  S S  S S  S S  S  S  S  S
|-22---------------------------------------|
|-18---------------------------------------|
|-19--19---19---19---19---19---19----19----|
|-----20---20---20---20---20---20----20----|
|-----20---20---20---20---20---20----20----|
|------------------------------------------|
|
|  E   S S  S S  S S  S S  S S  S  S  S  S
|--6---------------------------------------|
|------------------------------------------|
|------------------------------------------|
|------8----8----8----8----8----8-----8----|
|------------------------------------------|
|------------------------------------------|
|
|  Q.            E    Q         S  S  S  S
|------------------------------------------|
|------------------------------------------|
|------------------------------21-------21-|
|-24---------------------------24-22-24----|
|------------------------------------------|
|------------------------------------------|


   E    E    Q       E    E    Q
|-------------------------------------|
|-------------------------------------|
|-------------------------------------|
|-22----------------22----------------|
|-20----------------22----------------|
|-------------------------------------|
|
|  E    E    Q       E    E    Q
|-------------------------------------|
|--------------------5----------------|
|-------------------------------------|
|--7----------------------------------|
|-------------------------------------|
|-------------------------------------|
|
|  S S  S S  S S  E  S S  S S  S S  E
|-------------------------------------|
|-------------------20---20---20------|
|-22---22---22------------------------|
|----------------22----------------22-|
|-------------------------------------|
|-------------------------------------|


   E    E    Q         E    E    E    E
|---------------------20--------22--------|
|---------------------22--------23--------|
|---------------------22--------22--------|
|-22--------------------------------------|
|-24--------------------------------------|
|-----------------------------------------|
|
|  E    E    Q         H
|-----------------------------------------|
|--6--------------------------------------|
|-----------------------------------------|
|-----------------------------------------|
|-----------------------------------------|
|-----------------------------------------|
|
|  S S  S S  S S  S S  S S  S S  S S  S S
|----------------20----0---20---22--------|
|-22--------22-----------------------23---|
|------22---------------------------------|
|-----------------------------------------|
|-----------------------------------------|
|-----------------------------------------|


   Q         Q         E    E    E    E
|-20------------------20--------22--------|
|-22------------------22--------23--------|
|-22------------------22--------22--------|
|-----------------------------------------|
|-----------------------------------------|
|-----------------------------------------|
|
|  W
|-----------------------------------------|
|-----------------------------------------|
|-----------------------------------------|
|-----------------------------------------|
|-----------------------------------------|
|-----------------------------------------|
|
|  S S  S S  S S  S S  S S  S S  S S  S S
|-20--------17---20----0---20---22--------|
|------18----------------------------23---|
|-----------------------------------------|
|-----------------------------------------|
|-----------------------------------------|
|-----------------------------------------|


   Q  Q   S S  S S  S S  S S    S S  S S  S S  S S  S S  S S  S S  S S
|-20-------------------------|---------------------18---18---18---18---|
|-22-------------------------|-20---20---20---20---20---20---20---20---|
|-22-----22---22---22---22---|-19---19---19---19---19---19---19---19---|
|--------19---19---19---19---|-20---20---20---20-----------------------|
|----------------------------|-----------------------------------------|
|----------------------------|-----------------------------------------|
|
|  H      S S  S S  S S  S S    S S  S S  S S  S S  S S  S S  S S  S S
|----------------------------|-----------------------------------------|
|----------------------------|-----------------------------------------|
|---------7----7----7----7---|-----------------------------------------|
|----------------------------|--8----8----8----8-----------------------|
|----------------------------|---------------------10---10---10---10---|
|----------------------------|-----------------------------------------|
|
| Gtr III
|  H      S S  S S  S S  S S    S S  S S  S S  S S  S S  S S  S S  S S
|----------------------------|-----------------------------------------|
|----------------------------|-----------------------------------------|
|----------------------------|-----------------------------------------|
|---------0----0----0----0---|-----------------------------------------|
|----------------------------|--1----1----1----1-----------------------|
|----------------------------|----------------------3----3----3----3---|


   S S  E    S S  E    S S  E  E  E    E  S S  S S  S S  S S  S S  S S  S S
|-----------------------------------|----17---17---17---17---17---17---17---|
|-----------------------------------|----18---18----------------------------|
|-17---17--------17--------17-19-21-|-22-17---17---17---17---17---17---17---|
|-17---17--------17--------17-19-20-|-19------------------------------------|
|-19---19---15---19---15---19-20-22-|---------------------------------------|
|-----------------------------------|---------------------------------------|
|
|  S S  S S  S S  S S  S S  E  E  E    E  E    S S  S S  S S  S S  S S  S S
|-----------------------------------|---------------------------------------|
|-----------------------------------|----------6----6----6----6----6----6---|
|-----------------------------------|---------------------------------------|
|-10---10---10---10---10---10-10-10-|---------------------------------------|
|-----------------------------------|--8------------------------------------|
|-----------------------------------|---------------------------------------|
|
|  S S  S S  S S  S S  S S  E  E  E    E  E    Q         H
|-----------------------------------|---------------------------------------|
|-----------------------------------|---------------------------------------|
|-----------------------------------|---------------------------------------|
|-----------------------------------|---------------------------------------|
|--3----3----3----3----3----3--3--3-|---------------------------------------|
|-----------------------------------|--1------------------------------------|


   E    S S  S S  S S  S S  S S  S S  S S
|-15---20---20---20---20---20---20---20---|
|------20---20---20---20---20---20---20---|
|-----------------------------------------|
|-----------------------------------------|
|-----------------------------------------|
|-----------------------------------------|
|
|  E    S S  S S  S S  S S  S S  S S  S S
|------12---12---12---12---12---12---12---|
|--5--------------------------------------|
|-----------------------------------------|
|-----------------------------------------|
|-----------------------------------------|
|-----------------------------------------|
|
| Gtr IV
|  S S  S S  S S  S S  S S  S S  S S  S S
|-20---20---20---20---20---20---20---20---|
|-----------------------------------------|
|-----------------------------------------|
|-----------------------------------------|
|-----------------------------------------|
|-----------------------------------------|


   E   S S  S S  S S  S S  S S  S  S  S  S
|-22---------------------------------------|
|-22---------------------------------------|
|-----22---22---22---22---22---22----22----|
|------------------------------------------|
|-----24---24---24---24---24---24----24----|
|------------------------------------------|
|
|  E   S S  S S  S S  S S  S S  S  S  S  S
|-10---------------------------------------|
|------------------------------------------|
|------------------------------------------|
|-----12---12---12---12---12---12----12----|
|------------------------------------------|
|------------------------------------------|
|
|  Q.            E    Q         S  S  S  S
|------------------------------------------|
|-18---------------------------20-------20-|
|------------------------------22-21-22----|
|------------------------------------------|
|------------------------------------------|
|------------------------------------------|


   E    S S  S S  S S  S S  S S  S S  S S
|------17---17---17---17---17---17---17---|
|------17---17---17---17---17---17---17---|
|-21--------------------------------------|
|-19--------------------------------------|
|-----------------------------------------|
|-----------------------------------------|
|
|  E    S S  S S  S S  S S  S S  S S  S S
|-------8----8----8----8----8----8----8---|
|-----------------------------------------|
|-----------------------------------------|
|-10--------------------------------------|
|-----------------------------------------|
|-----------------------------------------|
|
|  S S  S S  S S  S S  S S  S S  S S  S S
|-----------------------------------------|
|-22---22---22---22---22---22---22---22---|
|-----------------------------------------|
|-----------------------------------------|
|-----------------------------------------|
|-----------------------------------------|


   E   S S  S S  S S  S S  S S  S  S  S  S
|-22---------------------------------------|
|-18---------------------------------------|
|-----19---19---19---19---19---19----19----|
|----------20---20---20---20---20----20----|
|-----20---20---20---20---20---20----20----|
|------------------------------------------|
|
|  E   S S  S S  S S  S S  S S  S  S  S  S
|--6---------------------------------------|
|------------------------------------------|
|------------------------------------------|
|------8----8----8----8----8----8-----8----|
|------------------------------------------|
|------------------------------------------|
|
|  Q.            E    Q         S  S  S  S
|------------------------------------------|
|------------------------------------------|
|------------------------------21-------21-|
|-24---------------------------24-22-24----|
|------------------------------------------|
|------------------------------------------|


   E    E    Q       E    E    Q
|-------------------------------------|
|-------------------------------------|
|-------------------------------------|
|-22----------------22----------------|
|-20----------------22----------------|
|-------------------------------------|
|
|  E    E    Q       E    E    Q
|-------------------------------------|
|--------------------5----------------|
|-------------------------------------|
|--7----------------------------------|
|-------------------------------------|
|-------------------------------------|
|
|  S S  S S  S S  E  S S  S S  S S  E
|-------------------------------------|
|-------------------20---20---20------|
|-22---22---22------------------------|
|----------------22----------------22-|
|-------------------------------------|
|-------------------------------------|


   E    E    Q         E    E    E    E
|---------------------20--------22---------|
|---------------------22--------23---------|
|---------------------22--------22---------|
|-22---------------------------------------|
|-24---------------------------------------|
|------------------------------------------|
|
|  E    E    Q         H
|------------------------------------------|
|--6---------------------------------------|
|------------------------------------------|
|------------------------------------------|
|------------------------------------------|
|------------------------------------------|
|
|  S S  S S  S S  S S  S S  S S  S S  S S
|----------------20----0---20---22---------|
|-22--------22-----------------------23----|
|------22----------------------------------|
|------------------------------------------|
|------------------------------------------|
|------------------------------------------|


   Q  Q   E E  E E    Q  Q   S S  S S  S S  S S
|-20-----20---22---|-20-------------------------|
|-22-----22---23---|-22-------------------------|
|-22-----22---22---|-22-----22---22---22---22---|
|------------------|--------22---22---22---22---|
|------------------|----------------------------|
|------------------|----------------------------|
|
|  W                  H      S S  S S  S S  S S
|------------------|----------------------------|
|------------------|----------------------------|
|------------------|----------------------------|
|------------------|---------7----7----7----7---|
|------------------|----------------------------|
|------------------|----------------------------|
|
| Gtr III
|  W                  H      S S  S S  S S  S S
|------------------|----------------------------|
|------------------|----------------------------|
|------------------|----------------------------|
|------------------|----------------------------|
|------------------|---------0----0----0----0---|
|------------------|----------------------------|


   S S  S S  S S  S S  S S  S S  S S  S S
|------------------------------------------|
|-20---20---20---20---21---21---21---21----|
|-22---22---22---22---22---22---22---22----|
|-24---24---24---24---24---24---24---24----|
|------------------------------------------|
|------------------------------------------|
|
|  S S  S S  S S  S S  S S  S S  S S  S S
|------------------------------------------|
|------------------------------------------|
|------------------------------------------|
|--8----8----8----8----8----8----8----8----|
|------------------------------------------|
|------------------------------------------|
|
|  S S  S S  S S  S S  S S  S S  S S  S S
|------------------------------------------|
|------------------------------------------|
|------------------------------------------|
|------------------------------------------|
|--1----1----1----1----1----1----1----1----|
|------------------------------------------|


   S S  S S  S S  S S  S S  S S  S S  S S    Q   S E  S  Q   S E  S
|-----------------------------------------|-20----------20-----------|
|-22---22-----------------------22---22---|-22--22---22-20--20-------|
|-22---22-------------22---22---22---22---|-22--22---22-21--21-------|
|-22---22---22---22---22---22---22---22---|-22--22---22-22--22---22--|
|-----------24---24-----------------------|--------------------------|
|-----------------------------------------|--------------------------|
|
|  S S  S S  S S  S S  S S  S S  S S  S S    Q   Q       Q   Q
|-----------------------------------------|--------------------------|
|-----------------------------------------|--------------------------|
|-----------------------------------------|--------------3-----------|
|-10---10---10---10-----------------------|--------------5-----------|
|---------------------12---12-------------|--3-----------7-----------|
|-------------------------------13---13---|--------------------------|
|
|  S S  S S  S S  S S  S S  S S  S S  S S    Q   Q       Q   Q
|-----------------------------------------|--0-----------------------|
|-----------------------------------------|--------------------------|
|-----------------------------------------|--------------------------|
|-----------------------------------------|--------------------------|
|--3----3----3----3----0----0-------------|--------------3-----------|
|--------------------------------1----1---|--------------------------|


   S  S  S  S  S  S  S  S  S  S  S  S  S  S  S  S
|-------------------------20-18-17-15-17-15-13-12-|
|----------------20-22-23-------------------------|
|-22-------21-22----------------------------------|
|----22-24----------------------------------------|
|-------------------------------------------------|
|-------------------------------------------------|
|
|  Q           Q           Q           E     E
|-------------------------------------------------|
|-------------------------------------------------|
|--2-----------------------------------3----------|
|--------------------------------------5----------|
|-------------------------------------------------|
|-------------------------------------------------|
|
|  Q           Q           Q           E     E
|-------------------------------------------------|
|-------------------------------------------------|
|-------------------------------------------------|
|--3----------------------------------------------|
|--------------------------------------3----------|
|-------------------------------------------------|


   S  S  S  S  S  S  S  S  S  S  S  S  S  S  S  S
|-13----------------------20-18-17-15-17-15-13-12-|
|----13-15-17-18-20-22-23-------------------------|
|-------------------------------------------------|
|-------------------------------------------------|
|-------------------------------------------------|
|-------------------------------------------------|
|
|  Q           Q           Q           E     E
|-------------------------------------------------|
|-------------------------------------------------|
|--2-----------------------------------3----------|
|--------------------------------------5----------|
|-------------------------------------------------|
|-------------------------------------------------|
|
|  Q           Q           Q           E     E
|-------------------------------------------------|
|-------------------------------------------------|
|-------------------------------------------------|
|--3----------------------------------------------|
|--------------------------------------3----------|
|-------------------------------------------------|


   S S  S S  S S  S S  S S  S S S S S S   E E  E E  E E  E E
|-13---17--------13--------10-------6---|----------18--------|
|-----------15--------11--------8-------|-5---22---20---20---|
|---------------------------------------|-----22---19---21---|
|---------------------------------------|-----22---20---20---|
|---------------------------------------|---------------22---|
|---------------------------------------|--------------------|
|
|  E    E    S S  S S  S S  S S S S S S   E E  E E  E E  E E
|---------------------------------------|--------------------|
|---------------------------------------|--------------------|
|--2------------------------------------|--------------------|
|------------0----3---------0-----------|-2----3-------------|
|----------------------1------------1---|-----------1----3---|
|-------------------------------3-------|--------------------|
|
|  E    E    Q         H                  E E  E E  E E  E E
|---------------------------------------|-----------0----0---|
|---------------------------------------|--------------------|
|---------------------------------------|--------------------|
|--3------------------------------------|--------------------|
|---------------------------------------|--------------------|
|---------------------------------------|-0----1-------------|


   Q   S  S  S  S  S  S  S  S  S  S  S  S
|--------13----13----13----13----13----13-|
|-18--------------------------------------|
|-17--------------------------------------|
|-19--15----15----15----15----15----15----|
|-20--------------------------------------|
|-----------------------------------------|
|
|  Q   Q           H
|-----------------------------------------|
|-----------------------------------------|
|-----------------------------------------|
|--3--------------------------------------|
|-----------------------------------------|
|-----------------------------------------|
|
|  Q   Q           H
|-----------------------------------------|
|-----------------------------------------|
|-----------------------------------------|
|-----------------------------------------|
|-----------------------------------------|
|--1--------------------------------------|


   S  S  S  S  S  S  S  S  S  S  S  S  S  S  S  S
|----13----13----13----13----13----13----13----13--|
|--------------------------------------------------|
|--------------------------------------------------|
|-15----15----15----15----15----15----15----15-----|
|--------------------------------------------------|
|--------------------------------------------------|
|
|  E     S  S  S  S  S  S  S  S  S  S  S  S  S  S
|--------------------------------------------------|
|--------------------1-----3-----1-----3-----------|
|--------2-----3-----------------------------3-----|
|--------------------------------------------------|
|--------------------------------------------------|
|--------------------------------------------------|
|
|  E     S  S  S  S  S  S  S  S  S  S  S  S  S  S
|--------------------------------------------------|
|--------------------------------------------------|
|--------------------------------------------------|
|--------3-----5-----7-----8-----7-----8-----------|
|-------------------------------------------10-----|
|--------------------------------------------------|


   S  S  S  S  S  S  S  S  S  S  S  S  S  S  S  S
|----13----13----13----13----13----13----13----13-|
|-------------11----13----15----13----15----11----|
|-------14----12----14----15----14----15----12----|
|-15----15----------------------------------------|
|-------------------------------------------------|
|-------------------------------------------------|
|
|  E     E     Q           H
|-------------------------------------------------|
|-------------------------------------------------|
|--2----------------------------------------------|
|-------------------------------------------------|
|-------------------------------------------------|
|-------------------------------------------------|
|
|  E     E     Q           H
|-------------------------------------------------|
|-------------------------------------------------|
|-------------------------------------------------|
|-------------------------------------------------|
|--8----------------------------------------------|
|-------------------------------------------------|


   S  S  S  S  S  S  S  S  S  S  S  S  S  S  S  S
|----13----13----13----13----13----13----13----13-|
|-------------------------------------------------|
|-14----------------------------------------------|
|-15----15----15----15----15----15----15----15----|
|-------------------------------------------------|
|-------------------------------------------------|
|
|  E     S  S  S  S  S  S  S  S  S  S  S  S  S  S
|-------------------------------------------------|
|--------------------1-----3-----1-----3----------|
|--------2-----3-----------------------------3----|
|-------------------------------------------------|
|-------------------------------------------------|
|-------------------------------------------------|
|
|  E     S  S  S  S  S  S  S  S  S  S  S  S  S  S
|-------------------------------------------------|
|-------------------------------------------------|
|-------------------------------------------------|
|-------------------------------------------------|
|--------8----10----12----13----12----13----------|
|-------------------------------------------15----|


   S  S  S  S  S  S  S  S  S  S  S  S  S  S  S  S
|----13----13----13----13----13----13----13----13-|
|-------------11----13----15----13----15----11----|
|-------14----12----14----15----14----15----12----|
|-15----15----------------------------------------|
|-------------------------------------------------|
|-------------------------------------------------|
|
|  E     E     Q           H
|-------------------------------------------------|
|-------------------------------------------------|
|--2----------------------------------------------|
|-------------------------------------------------|
|-------------------------------------------------|
|-------------------------------------------------|
|
|  E     E     Q           H
|-------------------------------------------------|
|-------------------------------------------------|
|-------------------------------------------------|
|-------------------------------------------------|
|-------------------------------------------------|
|-13----------------------------------------------|


   S  S  S  S  S  S  S  S  S  S  S  S  S  S  S  S
|----13----13----13----13----13----13----13----13-|
|-------------------------------------------------|
|-14----------------------------------------------|
|-15----15----15----15----15----15----15----15----|
|-------------------------------------------------|
|-------------------------------------------------|
|
|  E     S  S  S  S  S  S  S  S  S  S  S  S  S  S
|-------------------------------------------------|
|--------------------1-----3-----1-----3----------|
|--------2-----3-----------------------------3----|
|-------------------------------------------------|
|-------------------------------------------------|
|-------------------------------------------------|
|
|  E     S  S  S  S  S  S  S  S  S  S  S  S  S  S
|-------------------------------------------------|
|-------------------------------------------------|
|-------------------------------------------------|
|-------------------------------------------------|
|-------------------------------------------------|
|-------13----15----17----18----17----18----15----|


   S  S  S  S  S  S  S  S  S  S  S  S  S  S  S  S
|----13----13----13----13----13----13----13----13-|
|-------------11----13----15----13----15----11----|
|-------14----12----14----15----14----15----12----|
|-15----15----------------------------------------|
|-------------------------------------------------|
|-------------------------------------------------|
|
|  E     E     Q           H
|-------------------------------------------------|
|-------------------------------------------------|
|--2----------------------------------------------|
|-------------------------------------------------|
|-------------------------------------------------|
|-------------------------------------------------|
|
|  E     E     Q           H
|-------------------------------------------------|
|-------------------------------------------------|
|-------------------------------------------------|
|-------------------------------------------------|
|-------------------------------------------------|
|-13----------------------------------------------|


   S  S  S  S  S  S  S  S  S  S  S  S  S  S  E
|----13----13----13----13----13----13----13------|
|------------------------------------------------|
|-14---------------------------------------------|
|-15----15----15----15----15----15----15---------|
|------------------------------------------------|
|------------------------------------------------|
|
|  E     S  S  S  S  S  S  S  S  S  S  S  S  S S
|------------------------------------------------|
|--------------------1-----3-----1-----3---------|
|--------2-----3-----------------------------3---|
|------------------------------------------------|
|------------------------------------------------|
|------------------------------------------------|
|
|  E     S  S  S  S  S  S  S  S  S  S  S  S  S S
|------------------------------------------------|
|------------------------------------------------|
|------------------------------------------------|
|------------------------------------------------|
|------------------------------------------------|
|-------13----15----17----18----17----18----15---|


   Q.    E  Q.     E    Q.     E  Q.     E
|-20-------20--------|-----------22--------|
|-22-------22--------|-22--------23--------|
|-20-------20--------|---------------------|
|----------22--------|-22--------24--------|
|--------------------|-24------------------|
|--------------------|---------------------|
|
|  Q   E E  E  E E E    E  E E E  E  E E E
|--------------------|---------------------|
|------4-4--4--4-4-3-|--3--3-3-3--3--3-3-1-|
|------5-5--5--5-5-5-|--5--5-5-5-----------|
|--4-----------------|---------------------|
|--------------------|---------------------|
|--------------------|---------------------|
|
|  Q   E E  E  E E E    E  E E E  E  E E E
|--------------------|---------------------|
|--------------------|---------------------|
|--------------------|---------------------|
|------4-4--4--4-4-4-|--4--4-4-4--4--4-4-4-|
|--------------------|---------------------|
|--2-----------------|---------------------|


   E  S  S  S  S  S  S  S  S  S  S  S  S  S  S
|----------------------------------------------|
|-20----20----20----20----20----20----20----20-|
|-19-------------19----20----19----20----------|
|-20-20----22----20----22----20----22----22----|
|-22-22----24----------------------------24----|
|----------------------------------------------|
|
|  Q        Q           H
|----------------------------------------------|
|----------------------------------------------|
|--3-------------------------------------------|
|----------------------------------------------|
|----------------------------------------------|
|----------------------------------------------|
|
|  Q        Q           H
|----------------------------------------------|
|----------------------------------------------|
|----------------------------------------------|
|--5-------------------------------------------|
|----------------------------------------------|
|----------------------------------------------|


   S  S  S  S  S  S  S  S  S  S  S  S  S  S  S  S
|-------------------------------------------------|
|----20----20----20----20----20----20----20----20-|
|-------------------------------------------------|
|-20----------------------------------------------|
|-22----22----22----22----22----22----22----22----|
|-------------------------------------------------|
|
|  E     S  S  S  S  S  S  S  S  S  S  S  S  S  S
|-------------------------------------------------|
|--------------1-----3-----4-----3-----4----------|
|--------3-----------------------------------5----|
|-------------------------------------------------|
|-------------------------------------------------|
|-------------------------------------------------|
|
|  E     S  S  S  S  S  S  S  S  S  S  S  S  S  S
|-------------------------------------------------|
|-------------------------------------------------|
|-------------------------------------------------|
|--------5-----7-----8----10-----8----10----------|
|-------------------------------------------12----|
|-------------------------------------------------|


   S  S  S  S  S  S  S  S  S  S  S  S  S  S  S  S
|-------------------------------------------------|
|----20----20----20----20----20----20----20----20-|
|-------------------19----20----19----20----------|
|-------20----22----20----22----20----22----22----|
|-22----22----24----------------------------24----|
|-------------------------------------------------|
|
|  S  S  E     Q           H
|-------------------------------------------------|
|-------------------------------------------------|
|--3----------------------------------------------|
|-------------------------------------------------|
|-------------------------------------------------|
|-------------------------------------------------|
|
|  S  S  E     Q           H
|-------------------------------------------------|
|-------------------------------------------------|
|-------------------------------------------------|
|-------------------------------------------------|
|-10----------------------------------------------|
|-------------------------------------------------|


   S  S  S  S  S  S  S  S  S  S  S  S  S  S  S  S
|-------------------------------------------------|
|----20----20----20----20----20----20----20----20-|
|-------------------------------------------------|
|-20----------------------------------------------|
|-22----22----22----22----22----22----22----22----|
|-------------------------------------------------|
|
|  E     S  S  S  S  S  S  S  S  S  S  S  S  S  S
|-------------------------------------------------|
|--------------1-----3-----4-----3-----4----------|
|--------3-----------------------------------5----|
|-------------------------------------------------|
|-------------------------------------------------|
|-------------------------------------------------|
|
|  E     S  S  S  S  S  S  S  S  S  S  S  S  S  S
|-------------------------------------------------|
|-------------------------------------------------|
|-------------------------------------------------|
|-------------------------------------------------|
|-------10----12----13----15----13----15----------|
|-------------------------------------------17----|


  Q.      E    Q.           E
|-0-----------22-----------------|
|--------------------------------|
|-------------19-----------------|
|--------------------------------|
|--------------------------------|
|--------------------------------|
|
| Q   S S S S  S  S S S S S S S
|--------------------------------|
|-----6---6----6----6---6---6----|
|-----7---7----7----7---7---7----|
|-6---9---9----9----9---9---9----|
|--------------------------------|
|--------------------------------|
|
| Q   S S S S  S  S S S S S S S
|--------------------------------|
|--------------------------------|
|--------------------------------|
|-----6---6----6----6---6---6----|
|--------------------------------|
|-4------------------------------|


   Q.           E    Q.           E      Q    Q   Q    E E    Q  Q  H
|-19----------------24----------------|--------------------|---------------|
|-------------------------------------|-22---22-------22---|-22------------|
|-19----------------21----------------|-21---21-------21---|-21------------|
|-21----------------------------------|-23---23-------23---|-23------------|
|-------------------------------------|-24---24-------24---|-24------------|
|-------------------------------------|--------------------|---------------|
|
|  S  S S S S S S S  S  S S S S S S S    W                    Q  Q  Q  Q
|-------------------------------------|--------------------|---------------|
|--5----5---5---5----5----5---5---5---|--------------------|-----5--5--5---|
|--7----7---7---7----7----7---7---7---|--------------------|-----6--6--6---|
|-------------------------------------|--------------------|-----7--7--7---|
|-------------------------------------|--------------------|---------------|
|-------------------------------------|--------------------|---------------|
|
|  S  S S S S S S S  S  S S S S S S S    E E  E E E E  E E    Q  Q  H
|-------------------------------------|--------------------|---------------|
|-------------------------------------|--------------------|---------------|
|-------------------------------------|-------6------------|---------------|
|--6----6---6---6----6----6---6---6---|--7-7----7---7------|---------------|
|-------------------------------------|-----------7------7-|---------------|
|-------------------------------------|----------------9---|--5------------|


  Gtr II
   Q          Q          Q          Q
|---------------------------------------------|
|-------------6----------6----------6---------|
|-------------7----------7----------7---------|
|-------------7----------7----------7---------|
|---------------------------------------------|
|--5------------------------------------------|
|
| Gtr III
|  H                     H
|--0------------------------------------------|
|---------------------------------------------|
|---------------------------------------------|
|---------------------------------------------|
|---------------------------------------------|
|---------------------------------------------|
|
| Gtr IV
|  S  S S  S  S  S S  S  S  S S  S  S  S S  S
|------------17-18---17-----------------------|
|-18-20---18------------18-20---18----17---15-|
|----------------------------------19---------|
|---------------------------------------------|
|---------------------------------------------|
|---------------------------------------------|


   Q          Q         Q         Q
|-------------------------------------------|
|-------------5---------5---------5---------|
|-------------6---------6---------6---------|
|-------------7---------7---------7---------|
|-------------------------------------------|
|--5----------------------------------------|
|
|  H                    H
|--0----------------------------------------|
|-------------------------------------------|
|-------------------------------------------|
|-------------------------------------------|
|-------------------------------------------|
|-------------------------------------------|
|
|  S  S S  S  S  S S  S S  S S S  S  S S  S
|-----------------------9-10---9-12-13---12-|
|-14-15---14----12---10---------------------|
|------------14-----------------------------|
|-------------------------------------------|
|-------------------------------------------|
|-------------------------------------------|


   Q          Q          Q          Q
|---------------------------------------------|
|-------------6----------6----------6---------|
|-------------7----------7----------7---------|
|-------------7----------7----------7---------|
|---------------------------------------------|
|--5------------------------------------------|
|
|  H                     H
|--0------------------------------------------|
|---------------------------------------------|
|---------------------------------------------|
|---------------------------------------------|
|---------------------------------------------|
|---------------------------------------------|
|
|  S  S S  S  S  S S  S  S  S S  S  S  S S  S
|-13-15---13-17-18---17-----------------------|
|-----------------------18-20---18----17---15-|
|----------------------------------19---------|
|---------------------------------------------|
|---------------------------------------------|
|---------------------------------------------|


   Q          Q         Q         Q
|-------------------------------------------|
|-------------5---------5---------5---------|
|-------------6---------6---------6---------|
|-------------7---------7---------7---------|
|-------------------------------------------|
|--5----------------------------------------|
|
|  H                    H
|--0----------------------------------------|
|-------------------------------------------|
|-------------------------------------------|
|-------------------------------------------|
|-------------------------------------------|
|-------------------------------------------|
|
|  S  S S  S  S  S S  S S  S S S  S  S S  S
|-----------------------9-10---9-12-13---12-|
|-14-15---14----12---10---------------------|
|------------14-----------------------------|
|-------------------------------------------|
|-------------------------------------------|
|-------------------------------------------|


  Gtr I
  E  S S  S S  S S  S S  S S  S S  S S    Q  Q   H
|-------------17---22------------------|----------------------|
|--------18-------------22---23--------|-22-------------------|
|---19----------------------------24---|----------------------|
|--------------------------------------|----------------------|
|--------------------------------------|----------------------|
|--------------------------------------|----------------------|
|
| Gtr II
| Q       Q         S S  E    S S  E      Q  Q   S S E  S S E
|------------------17------------------|----------------------|
|-6------------------------------------|----------------------|
|-7----------------14--------15--------|-14-----14-----15-----|
|-7----------------15--------17--------|-15-----15-----17-----|
|-5----------------17--------17--------|-17-----17-----17-----|
|--------------------------------------|----------------------|
|
| Gtr III
| Q       Q         H                     W
|-0------------------------------------|----------------------|
|--------------------------------------|----------------------|
|--------------------------------------|----------------------|
|--------------------------------------|----------------------|
|--------------------------------------|----------------------|
|--------------------------------------|----------------------|


   E  S S  S S  S S  S S  S S  S S  S S
|-------------------22------------------|
|--------------22--------22---23--------|
|---------22-----------------------24---|
|----24---------------------------------|
|---------------------------------------|
|---------------------------------------|
|
|  Q       Q         S S  E    S S  E
|---------------------------------------|
|---------------------------------------|
|-14----------------14--------15--------|
|-15----------------15--------17--------|
|-17----------------17--------17--------|
|---------------------------------------|
|
| Gtr IV
|  Q       Q         H
|---------------------------------------|
|-22------------------------------------|
|---------------------
Добавлено: 30.04.2012
Другие материалы по этой песне:

Страница создана 17.03.2012
http://primanota.ru/mozart-wolfgang-amadeus/queen-of-the-night-aria-chords.htm
Привет, Гость.
Предлагаем пройти революционный курс по гитаре.
Подарок от PrimaNota.Ru, забирай!