PrimaNota.ru - самый крупный в мире бесплатный архив песенных текстов, аккордов, табулатур и нот


Моцарт Вольфганг Амадей - Маленькая серенада, 1-ая часть К.525 - аккорды и текст, видео

Регистрация Запомнить меня
Войти через:  Facebook Google Twitter Vk Yandex Mail.ru

Моцарт Вольфганг Амадей - Маленькая серенада, 1-ая часть К.525 - аккорды и текст, видео

Печатать
Просмотров: 328
Уроки эстрадного вокала в Санкт-Петербурге
Маленькая серенада, 1-ая часть К.525
Моцарт Вольфганг Амадей
Размер: 4/4
Темп: Allegro
 
E|--3---------------3---------------|3-------3---7---10-|
B|--------------3---------------3---|----3--------------|
G|-4---------------0---------------|0-------0---4---7--|
D|-@------------0---------------0---|----0--------------|
A|--5-------------------------------|-------------------|
E|--3-------------------------------|-------------------|

E|-8-----------5---8-----------5---|8---5---2---5-----|
B|---------------------------------|----------------3-|
G|-5-----------2---5-----------2---|5---2-------2-----|
D|---------------------------------|--------4-------0-|
A|---------------------------------|------------------|
E|---------------------------------|------------------|

E|-3-------3-----------7---5---3-|--------------------5--8-----|
B|-3---3---3---3---3---3---3---3-|8---7---7-----------7--7---7-|
G|-4---4---4---4---4---4---4---4-|5---5---5---5---5---5--5---5-|
D|-5---5---5---5---5---5---5---5-|5---5---5---5---5---5--5---5-|
A|-------------------------------|-----------------------------|
E|-------------------------------|-----------------------------|

E|-5---3---3-----------7---5---3-|--------------------5--8-----|
B|-3---3---3---3---3---3---3---3-|8---7---7-----------7--7---7-|
G|-4---4---4---4---4---4---4---4-|5---5---5---5---5---5--5---5-|
D|-5---5---5---5---5---5---5---5-|5---5---5---5---5---5--5---5-|
A|-------------------------------|-----------------------------|
E|-------------------------------|-----------------------------|

E|-3---3---3-2-0-2-3---3---7-5---5-|7---7---10---------10-|
B|-0-------1-------3-----------8---|8---------13-12-13-12-|
G|-------------------------5-------|--------11------------|
D|---------------------------------|----------------------|
A|---------0-------2-------5-------|7-------9----------10-|
E|-3-------------------------------|----------------------|

E|---------------------------------|--------------------------|
B|-3---------------5---------------|3---1---1-------1---0---0-|
G|-4---------------5---------------|4---2---2-------2---0---0-|
D|---------------------------------|0---------------2---------|
A|---------------------------------|--------------------------|
E|---------------------------------|--------------------------|

E|---------------------------------|------------------|
B|-0-------------------------------|------------------|
G|-0---2---2-----------------------|0-------2-------4-|
D|-----2---2-------5---4---2---4---|0-------4-------5-|
A|-3---------------5---------------|2-------5---------|
E|---------------------------------|------------------|

E|------------------------------|------------------------------|
B|-3---------------5------------|3---1---1---1---1---0---0---0-|
G|-4---------------5------------|4---2---2---2---2---0---0---0-|
D|------------------------------|0---------------2-------------|
A|------------------------------|------------------------------|
E|------------------------------|------------------------------|

E|------------------------------|------------------------------|
B|-0----------------------------|------------------------------|
G|-0---2---2---2----------------|------------------------2-----|
D|-----2---2---2---5---4---2--4-|5-------------------4-5-----5-|
A|-3---------------5------------|------------------------------|
E|------------------------------|3---3---3---3---3---3---3---3-|

E|------------------------------|------------------------------|
B|------------------------------|3---3---3---3---5---5---7---7-|
G|-4-------------------2-4-5--2-|4---4---4---4---5---5---5---5-|
D|------------------------------|------------------------------|
A|------------------------------|------------------------------|
E|-3---3---3---3---3---3---3--3-|3---3---3---3---3---3---3---3-|

E|-3---3---5---5---7---7---9--9-|10--------------9-------9-----|
B|-3---3---3---3---3---3---8--8-|------------10--------8-----8-|
G|------------------------------|11--11--11--11--9---9---9---9-|
D|------------------------------|0---0---0---0---0---0---0---0-|
A|------------------------------|------------------------------|
E|-3---3---2---2---3---3---0--0-|------------------------------|

E|-10--------------9-------9-----|10--10----10------10------10-|
B|-------------10--------8-----8-|7---7-----7-------7-------7--|
G|-11--11--11--11--9---9---9---9-|-----------------------------|
D|-0---0---0---0---0---0---0---0-|0-------------0--------------|
A|-------------------------------|----7--9--7-------7---9---7--|
E|-------------------------------|-----------------------------|

E|-10--10------10------10-----10-|9------10------9------10-----|
B|-------------------------------|---10------10-----10------10-|
G|-9---9-------9-------9------9--|9------11------9------11-----|
D|-----7---9---7-------7---9--6--|-----------------------------|
A|-10--------------10------------|0--0---0---0---0--0---0---0--|
E|-------------------------------|-----------------------------|

E|-9-----------------|
B|-10----------------|
G|-----2-2-2---2---2-|
D|-------------------|
A|-0---0-0-0---0---0-|
E|-------------------|

E|-5------------320--------7-------|----------------5---------|
B|-----------------3---------------|8-------5-----------------|
G|-2-----------------------4-------|9---------------2---------|
D|-----------------0-------4-------|9-------5-------2---------|
A|-------------------------6-------|7-------5-------4-------4-|
E|---------------------------------|------------------------5-|

E|-2-----------------------3----|2---------------0-------------|
B|--------------5320-------5----|3---------------2-------------|
G|------------------------------|--------2-------2---1---0-----|
D|---------2-------0------------|----------------------------2-|
A|---------1-------2------------|0-----------------------------|
E|-------------------------3----|------------------------------|

E|----5---5---5---5---5---5---5-|5---5---5---5---5---5---7---9-|
B|------------------------------|------------------------------|
G|-2----------------------4-----|0---------------2-------0-----|
D|-0----------4---0-------4-----|--------2---------------------|
A|--------4---------------6-----|--------5-------4-------0-----|
E|--------0-------2-------------|0-----------------------------|

E|-9---10------7---7---5--------|-----------5---10--9----------|
B|-------------8---8---7------2-|3----------------------12--10-|
G|-0--------------------------0-|------------------------------|
D|------------------------------|4--4---5---5---7---7----------|
A|-----9-----------0-------0----|5--5---7---7---9---9---9---9--|
E|-7-------0--------------------|-----------------------10--10-|

E|-7---------------------------|----------------10--9----------|
B|----10----10--10--10--10--10-|12--10------10----------12--10-|
G|-----------------------------|-------------------------------|
D|--------------9---9----------|----------------7---7----------|
A|-7--7--9--9---7---7---9---9--|9---9---10--10--9---9---9---9--|
E|-9--9--10-10----------7---7--|10--10--12--12----------10--10-|

E|-7----------------------------|----------------7-----------5-|
B|----10-----10--10--10--10--10-|12--10----------7-------------|
G|------------------------------|------------------------------|
D|---------------7---7----------|------------------------------|
A|-7--7--9---9---9---9---7---7--|9-------9---7---6-------4---6-|
E|-9--9--10--10----------9---9--|10--10--------------7---------|

E|-3---------------5----------3-|----------------7---9-109---7-|
B|-5---------------5------------|7---7---8---10--8---101210--8-|
G|-----0------------------------|7---7---9---11----------------|
D|---------2---0----------------|----------------0---0---0---0-|
A|-----------------4---0---2--4-|5---5---7---9-----------------|
E|-0----------------------------|------------------------------|

E|-7---5-------5---5---3---2--0-|-----------5---10--9----------|
B|-8---7---7---7---7---5---3--2-|3----------------------12--10-|
G|---------7------------------0-|------------------------------|
D|------------------------------|4--4---5---5---7---7----------|
A|-0---0---0---0---0---0---0--0-|5--5---7---7---9---9---9---9--|
E|------------------------------|-----------------------10--10-|

E|-7------------------------------|--------------10--9---------|
B|-----10------10--10--10--10--10-|12--10-----10--------12--10-|
G|--------------------------------|----------------------------|
D|-----------------9---9----------|--------------7---7---------|
A|-7---7---9---9---7---7---9---9--|9---9---10-10-9---9--9---9--|
E|-9---9---10--10----------7---7--|10--10--12-12--------10--10-|

E|-7----------------------------|----------------7-----------5-|
B|-----10------10-10-10--10--10-|12--10----------7-------------|
G|------------------------------|------------------------------|
D|----------------7--7----------|------------------------------|
A|-7---7---9---9--9--9---7---7--|9-------9---7---6-------4---6-|
E|-9---9---10--10--------9---9--|10--10--------------7---------|

E|-3--------------5-----------3-|----------------7---9-109---7-|
B|-5--------------5-------------|7---7---8---10--8---101210--8-|
G|-----0------------------------|7---7---9---11----------------|
D|---------2---0----------------|----------------0---0---0---0-|
A|----------------4---0---2---4-|5---5---7---9-----------------|
E|-0----------------------------|------------------------------|

E|-7---5-------5---5---3---2---0-|-----------------------------|
B|-8---7---7---7---7---5---3---2-|3----------------------------|
G|---------7-------------------0-|---2--4--6--7---7---9119-7-9-|
D|-------------------------------|0----------------------------|
A|-0---0---0---0---0---0---0---0-|---0--2--4--5---5---7--------|
E|-------------------------------|-----------------------------|

E|---------------------------------|--------------------------|
B|---------------------------------|--------------------------|
G|-11-6--7--9--11-11-12-14-12-11-12|14--14--15-16-15-13-15-16-|
D|---------------------------------|--------------------------|
A|-9--4--5--7--9--9--10------------|12--12--13-------------14-|
E|---------------------------------|--------------------------|

E|-------------0-----------------|--------2--------------------|
B|-0---------------3---2---0-----|3---------------3------------|
G|-0---------------0-----------2-|--------2------------------@-|
D|-2---------------2-------------|4-------0-------4----------@-|
A|-----------------0-------------|5---------------5------------|
E|-0-----------------------------|-----------------------------|

E|---------------------------------|-------------2---5-|
B|-3---------------3---------------|-3-------3---------|
G|-------------2---------------2---|-----2-----------2-|
D|-0---------------0---------------|-0-------0---4-----|
A|-------------0---------------0---|-----0-------------|
E|---------------------------------|-------------------|

E|-5-----------2---5-----------2---|-5---2-------------|
B|---------------------------------|---------4---7---0-|
G|-2---------------2---------------|-2-----------------|
D|-------------4---------------4---|-----4---1---4-----|
A|---------------------------------|-----------------2-|
E|---------------------------------|-------------------|

E|-------------3---8---7---5---3-|-5---3-----3---3---3---3---3-|
B|-------------------------------|-----------------------------|
G|-------------------------------|-----------------------------|
D|-2---2---3---3---5---5---2---2-|-0---0--2--2---3---3---0---0-|
A|-3---3---5---5---7---7---3---3-|-2---2--3--3---5---5---2---2-|
E|-------------------------------|-----------------------------|

E|-5---3-------3---8---7---5---3-|-5---3-----3---3---3---3---3-|
B|-------------------------------|-----------------------------|
G|-------------------------------|-----------------------------|
D|-0---0---2---2---3---3---0---0-|-2---2--3--3---5---5---2---2-|
A|-2---2---3---3---5---5---2---2-|-3---3--5--5---7---7---3---3-|
E|-------------------------------|-----------------------------|

E|-5---3-------3---3---3---3---3-|
B|-------------------------------|
G|-------------------------------|
D|-0---0---2---2---3---3---0---0-|
A|-2---2---3---3---5---5---2---2-|
E|-------------------------------|

E|-5---4-------4---4---4---4---4-|-7--5------5---8---6---5-----|
B|-3---3---5---5---6---6---3---3-|-------3---3---5---5-------8-|
G|-4---4---5---5---7---7---4---4-|-5--5--4---4---5---5---5---5-|
D|-------------------------------|-7--7------------------7---7-|
A|-------------------------------|-0---------------------------|
E|-0-----------------------------|-----------------------------|

E|-3---2-------2---2---2---2---2-|-5--3----------3---1---------|
B|-1---1---3---3---4---4---1---1-|-----------4-----------4---3-|
G|-2---2---3---3---5---5---2---2-|-3--3--2---2---3---3---2---2-|
D|-0-----------------------------|-1---------------------------|
A|-------------------------------|-----------------------------|
E|-------------------------------|-----------------------------|

E|-------------------------------|-0---------------------------|
B|-3---2-------2---2---2---2---2-|-----3-----------------------|
G|-3---3---2---2---3---3---2---0-|-----------------------------|
D|-------------------------------|-4---------0---2---4---5---7-|
A|-------------------------------|-5---------------------------|
E|-------------------------------|---------------0---2---3---5-|

E|-------------------------------|-0-------------0---2---3---5-|
B|-------------------------------|-----3-----3-----------------|
G|-5---3---------------2---3---6-|-----------------------------|
D|-------------4---5-------------|-2---0-----------------------|
A|-3---1---------------0---1---4-|-----------------------------|
E|-------------2---3-------------|-----------------------------|

E|-6-------7-------8-------9---|-10----------------------------|
B|-----------------------------|-------------------------------|
G|-----------------------------|-7---7---7---9---5---5---5---7-|
D|-----------------------------|-9---9---9---10--7---7---7---9-|
A|-----------------------------|-------------------------------|
E|-----------------------------|-------------------------------|

E|-----------------3-2-3-2-3-2-0-2-|
B|-0---0---0---3---3---------------|
G|-0---0---0---4-------------------|
D|-0---------------0---------------|
A|---------------------------------|
E|---------------------------------|

E|-3---------------3---------------|3-------3---7---10-|
B|-------------3---------------3---|----3--------------|
G|-4---------------0---------------|0-------0---4---7--|
D|-------------0---------------0---|----0--------------|
A|-5-------------------------------|-------------------|
E|-3-------------------------------|-------------------|

E|-8-----------5---8-----------5---|8---5---2---5-----|
B|---------------------------------|------------------|
G|-5-----------2---5-----------2---|5---2-------2---2-|
D|---------------------------------|--------4---------|
A|---------------------------------|----------------0-|
E|---------------------------------|------------------|

E|-3-------3-----------7---5---3-|-------------------5---8-----|
B|-3---3---3---3---3---3---3---3-|8--7---7-----------7---7---7-|
G|-4---4---4---4---4---4---4---4-|5--5---5---5---5---5---5---5-|
D|-5---5---5---5---5---5---5---5-|5--5---5---5---5---5---5---5-|
A|-------------------------------|-----------------------------|
E|-------------------------------|-----------------------------|

E|-5---3---3-----------7---5---3-|-------------------5---8-----|
B|-3---3---3---3---3---3---3---3-|8--7---7-----------7---7---7-|
G|-4---4---4---4---4---4---4---4-|5--5---5---5---5---5---5---5-|
D|-5---5---5---5---5---5---5---5-|5--5---5---5---5---5---5---5-|
A|-------------------------------|-----------------------------|
E|-------------------------------|-----------------------------|

E|-3---3---3-2-0-2-3---3---7-5---5-|7---7---10---------10-|
B|-0-------1-------3-----------8---|8---------13-12-13-12-|
G|-------------------------5-------|--------11------------|
D|---------------------------------|----------------------|
A|---------0-------2-------5-------|7-------9----------10-|
E|-3-------------------------------|----------------------|

E|---------------------------------|--------------------------|
B|-3---------------5---------------|3---1---1-------1---0---0-|
G|-4---------------5---------------|4---2---2-------2---0---0-|
D|---------------------------------|0---------------2---------|
A|---------------------------------|--------------------------|
E|---------------------------------|--------------------------|

E|---------------------------------|------------------|
B|-0-------------------------------|------------------|
G|-0---2---2-----------------------|0-------2-------4-|
D|-----2---2-------5---4---2---4---|0-------4-------5-|
A|-3---------------5---------------|2-------5---------|
E|---------------------------------|------------------|

E|------------------------------|------------------------------|
B|-3---------------5------------|3---1---1---1---1---0---0---0-|
G|-4---------------5------------|4---2---2---2---2---0---0---0-|
D|------------------------------|0---------------2-------------|
A|------------------------------|------------------------------|
E|------------------------------|------------------------------|

E|------------------------------|------------------------------|
B|-0----------------------------|------------------------------|
G|-0---2---2---2----------------|------------------------2-----|
D|-----2---2---2---5---4---2--4-|5-------------------4-5-----5-|
A|-3---------------5------------|------------------------------|
E|------------------------------|3---3---3---3---3---3---3---3-|

E|------------------------------|------------------------------|
B|------------------------------|3---3---3---3---5---5---7---7-|
G|-4-------------------2-4-5--2-|4---4---4---4---5---5---5---5-|
D|------------------------------|------------------------------|
A|------------------------------|------------------------------|
E|-3---3---3---3---3---3---3--3-|3---3---3---3---3---3---3---3-|

E|-3---3---5---5---7---7---9--9-|10--------------9-------9-----|
B|-3---3---3---3---3---3---8--8-|------------10--------8-----8-|
G|------------------------------|11--11--11--11--9---9---9---9-|
D|------------------------------|0---0---0---0---0---0---0---0-|
A|------------------------------|------------------------------|
E|-3---3---2---2---3---3---0--0-|------------------------------|

E|-10--------------9-------9-----|
B|-------------10--------8-----8-|
G|-11--11--11--11--9---9---9---9-|
D|-0---0---0---0---0---0---0---0-|
A|-------------------------------|
E|-------------------------------|

E|-10------9-------10------9-------|-10----------------|
B|-----10------10------10------10--|-----3-3-3---3---3-|
G|-11------9-------11------9-------|-11----------------|
D|-0---0---0---0---0---0---0---0---|-0---0-0-0---0---0-|
A|---------------------------------|-------------------|
E|---------------------------------|-------------------|

E|---------------------------------|---------------------------|
B|-3----------1-0----------5-------|-1---------------3---------|
G|---------------2-0---------------|-2-------2-----------------|
D|-0-----------------------2-------|-2---------------0-------0-|
A|-------------------------2-------|-0-------3-------0---------|
E|-----------------3-------4-------|---------3-------2---------|

E|-7-----------532-0-------8---|-7---------------5-------------|
B|-------------------------10--|-8---------------7-------------|
G|-----------------0-----------|---------7-------7---6---5-----|
D|---------7-------2-----------|-0---------------------------7-|
A|---------6-------------------|-------------------------------|
E|-------------------------8---|-------------------------------|

E|-----10--10--10--10-10-10-10-|-10--10--10--10--10--8---5-----|
B|---------11------8-----------|---------8-------7-----------7-|
G|-----------------------9-----|-----------------7-------5-----|
D|-12--------------------------|-10------7---------------------|
A|-10------0-------------11----|-0-----------------------5-----|
E|-----------------7-----------|-------------------------------|

E|-0-----------0---0-----------|-----------------3---2---0-----|
B|-7---8-------1---1---3--3----|-------------3---------------3-|
G|---------------------4--4----|-0-----------------------------|
D|-----------------0---------4-|-----------------0---0---------|
A|---------0--------------5----|-2---2---3---3---2---2---2---2-|
E|-0---------------------------|-3---3---5---5-----------3---3-|

E|-0-----------------------------|-0-------------3---2---0-----|
B|-----3-------3---3---3---3---3-|-----3-----3---------------3-|
G|-------------------------------|-----------------------------|
D|-------------------------------|---------------0---0---------|
A|-0---0---2---2---3---3---0---0-|-2---2--3--3---2---2---2---2-|
E|-2---2---3---3---5---5---2---2-|-3---3--5--5-----------3---3-|

E|-0-----------------------------|-0-------------0-------------|
B|-----3-------3---3---3---3---3-|-----3---------0-----------3-|
G|-------------------------------|-----------------------------|
D|-------------------------------|-----------------------------|
A|-0---0---2---2---3---3---0---0-|-2------2--0-----------------|
E|-2---2---3---3---5---5---2---2-|-3---3---------4---0---2---4-|

E|-------------------------------|-----------------------------|
B|-1---------------3-----------1-|--------------------8--------|
G|-2---------------2-------------|-4--4--5--7---9---11--11--9--|
D|---------------------0---------|-5--5--7--9---10----------10-|
A|-0---3---0---------------------|-----------------------------|
E|-------------3---2-------0---2-|-3--3--5--7---8---8---8---8--|

E|-0-----------------------------|---------------3---2---0-----|
B|-1---3---0---3---3---1---0-----|-----------3---------------3-|
G|-----4---0---4---4---2---0---2-|-0---------------------------|
D|-0---0---0---0---0---0---0---4-|---------------0---0---------|
A|-----------------------------5-|-2--2--3---3---2---2---2---2-|
E|-------------------------------|-3--3--5---5-----------3---3-|

E|-0-----------------------------|-0-------------3---2---0-----|
B|-----3-------3---3---3---3---3-|-----3-----3---------------3-|
G|-------------------------------|-----------------------------|
Добавлено: 20.12.2013
http://primanota.ru/mozart-wolfgang-amadeus/malenkaya-serenada-1-aya-chast-k525-chords.htm
Привет, Гость.
Предлагаем пройти революционный курс по гитаре.
Подарок от PrimaNota.Ru, забирай!