PrimaNota.ru - самый крупный в мире бесплатный архив песенных текстов, аккордов, табулатур и нот


Моцарт Вольфганг Амадей - Маленькая пьеса в С - аккорды и текст, видео

Регистрация Запомнить меня
Войти через:  Facebook Google Twitter Vk Yandex Mail.ru

Моцарт Вольфганг Амадей - Маленькая пьеса в С - аккорды и текст, видео

Печатать
Просмотров: 284
Маленькая пьеса в С
Моцарт Вольфганг Амадей
E||---3-|-0-----------|-------------|--------------|-----------|
B||-----|----1--0--3--|--1----------|--------0--0--|--1--------|
G||----|-------------|-----0----0--|--2--2--------|---------0-|
D||----|-------0-----|--2-------2--|--3--3--0--0--|--2------2-|
A||-----|-3-----------|-------------|--------------|--3--------|
E||-----|-------------|-------------|--------------|-----------|

E|------------|--------0-|------------|-----------|------------|
B|-------0--0-|-1--------|-3--------1-|-0---------|----------0-|
G|-2--2-------|----------|----0-------|----0----0-|-2--1--2----|
D|-3--3--0--0-|-2--------|-------4----|-----------|-------0----|
A|------------|-3------3-|-2-----0----|---------2-|-3----------|
E|------------|----------|------------|-3---------|------------|

E|----------|--------------|----||--3-|-3----------|-----------|
B|----------|------------0-|----||----|----5--5--2-|-2---------|
G|-0------0-|--2-1-2-1-2---|-0-||---|------------|------0--2-|
D|-2--------|------------0-|---||---|------------|-----------|
A|--------2-|--3-----------|----||----|------------|-0---------|
E|----------|--------------|-3--||----|------------|-----------|

E|-------0----|-1------1-|-1----------|-----------|------------|
B|-3----------|----------|----3--3--0-|-0---------|-1-----3----|
G|----2-----2-|----------|------------|---------0-|----0-----0-|
D|-3----------|-0--------|------------|------3----|-2----------|
A|-------4----|----------|------------|-----------|-------2----|
E|------------|----------|------------|-3---------|------------|

E|-0------3-|-0----------|-----------|-------------|-----------|
B|----------|----1--0--3-|-1---------|-------0--0--|--1--------|
G|----------|------------|----0----0-|-2--2--------|---------0-|
D|----------|-------0----|-2-------2-|-3-----0-----|--2------2-|
A|-3--------|-3----------|-----------|-------------|--3--------|
E|----------|------------|-----------|-------------|-----------|

E|------------|---------|----------0-|----------|------------0-|
B|-------0--0-|-1-----1-|-3--2--3----|-1------1-|-3-2-3-2-3----|
G|-2--2-------|---------|-------0----|-2--------|------------0-|
D|-3-----0----|-2-----2-|-3----------|--------2-|-3------------|
A|------------|-3-------|------------|----------|--------------|
E|------------|---------|------------|----------|--------------|

E|----------|
B|-1--------|
G|--------@-|
D|--------@-|
A|-3--------|
E|----------|

Добавлено: 21.09.2013
http://primanota.ru/mozart-wolfgang-amadeus/malenkaya-pesa-v-s-chords.htm
Привет, Гость.
Предлагаем пройти революционный курс по гитаре.
Подарок от PrimaNota.Ru, забирай!