PrimaNota.ru - самый крупный в мире бесплатный архив песенных текстов, аккордов, табулатур и нот


Моцарт Вольфганг Амадей - Klavierstuck - таба, видео

Регистрация Запомнить меня
Войти через:  Facebook Google Twitter Vk Yandex Mail.ru

Моцарт Вольфганг Амадей - Klavierstuck - таба, видео

Печатать
Просмотров: 170
\---Song:-Klavierstuck----------------\
 \---Composer:-Wolfgang-Amadeus-Mozart-\
  \---Transcription-by:Christian Liang--\
  /---E-Mail:christian.liang@gmail.com--/
 /---http://www.classclef.com----------/
/---Enjoy!----------------------------/

==========================================================================
          Klavierstuck by Wolfgang-Amadeus-Mozart (1756 - 1791)
==========================================================================

Moderate
Time Signature: 2/4
Key: G major

[1]                                                      
E|-----------------|-----------------|-----------------|-----------------|
B|-3---3---3-1-0-1-|-3---0-----------|-3---3---3-1-0-1-|-3---0-----------|
G|-----------------|-------------0---|-----------------|-------------0---|
D|-----------------|-0---------------|-----------------|-0---------------|
A|---------2-------|---------2-------|---------2-------|-----------------|
E|-3---------------|-----------------|-3---------------|---------3-------|
   | | | | | | | |   | | | | | | | |   | | | | | | | |   | | | | | | | | 
   |       |         |       |         |       |         |       |      
L  4   4   4 1   1   4       2         4   4   4 1   1   4       3     
   3       2                           3       2


[5]                                                      
E|-0---0---0-------|-0-----------0---|-----------------|-----------------|
B|-----------3-1-3-|-----1-----------|-3---3---3-1-0-1-|-3---0-------3---|
G|-----------------|---------2-------|-----------------|---------0-------|
D|-----------------|-----------------|-----------------|-----------------|
A|-3-------2-------|-0---------------|-2-------0-------|-----------------|
E|-----------------|---------2-------|-----------------|-3-------0-------|
   | | | | | | | |   | | | | | | | |   | | | | | | | |   | | | | | | | | 
   |       |         |       |         |       |         |       |      
L  3       2 4 1 4       1   3         4   4   4 1   1   4           4  
                             2         2                 3


[9]                                                      
E|-----------------|-----------------|-----------------|-----------------|
B|-1---1---1-0---0-|-1---------------|-1-0-----0-------|-----------------|
G|-------------2---|-----2-------5---|-----2-0---2-0---|-0=======--------|
D|-----------------|---------4-------|---------------4-|-----0-----------|
A|-0---------------|---------5-------|-----2---3---5---|-----------------|
E|---------3-------|-2---------------|-3---------------|---------3-------|
   | | | | | | | |   | | | | | | | |   | | | | | | | |   | | | | | | | | 
   |       |         |       |         |       |         |       |      
L  1   1   1   2     1   3   2   4     1   2   3 2 3 2           3
           3         2       3         3   2

[13]                                                      
E|-----------------|-----------------|-----------------|-----------------|
B|-----------------|-----------------|-----------------|-----3---3-1-0-1-|
G|-----2---2-0---0-|-2-0---0-2-0---0-|-2---------------|-----------------|
D|-0-----------4---|-----4-------4---|-0---4-------0---|-----------------|
A|-----------------|-----------------|---------0-------|---------0-------|
E|---------0-------|-2-------0-------|-----------------|-3---------------|
   | | | | | | | |   | | | | | | | |   | | | | | | | |   | | | | | | | | 
   |       |         |       |         |       |         |       |      
L      1   1   3     2   4   1   3     1   3             3   4   4 1   1
                     1

[17]                                                      
E|-----------------|-----------------|-----0---0-------|-0-----------0---|
B|-3-1-0-1-3-1-0-1-|-3---0-----------|-----------3-1-3-|-----1-----------|
G|-----------------|-------------0---|-----------------|---------2-------|
D|-----------------|-----------------|-----------------|-----------------|
A|-2-------0-------|---------2-------|-3-------2-------|-0---------------|
E|-----------------|-3---------------|-----------------|---------2-------|
   | | | | | | | |   | | | | | | | |   | | | | | | | |   | | | | | | | | 
   |       |         |       |         |       |         |       |      
L  4 1   1 4 1   1   4       2         3       2 4 1 4       1   3
   2                 3                                           2

[21]                                                      
E|-----------------|-----------------|-----------------|-----------------|
B|-----3---3-1-0-1-|-3---0-------3---|-----1---1-0---0-|-1---------------|
G|-----------------|---------0-------|-------------2---|-----2-------5---|
D|-----------------|-----------------|-----------------|---------4-------|
A|-2-------0-------|-----------------|-0---------------|---------5-------|
E|-----------------|-3-------0-------|---------3-------|-2---------------|
   | | | | | | | |   | | | | | | | |   | | | | | | | |   | | | | | | | | 
   |       |         |       |         |       |         |       |      
L  2   4   4 1   1   4           4         1   1   2     1   2   2   4
                     3                         3         2       3


[25]                                                      
E|-----------------|-----------------|
B|-1-0-----0-------|-----------------|
G|-----2-0---2-0---|-0=======--------|
D|---------------4-|-----0-----------|
A|-----2---3---5---|-------2---------|
E|-3---------------|---------3-------|
   | | | | | | | |   | | | | | | | | |
   |       |         |       |         
L  1   2   3 2 3 2         2 3
   3   1


     
Добавлено: 17.05.2012
Другие материалы по этой песне:

Страница создана 11.03.2012
http://primanota.ru/mozart-wolfgang-amadeus/klavierstuck-chords.htm
Привет, Гость.
Предлагаем пройти революционный курс по гитаре.
Подарок от PrimaNota.Ru, забирай!