PrimaNota.ru - самый крупный в мире бесплатный архив песенных текстов, аккордов, табулатур и нот


Моцарт Вольфганг Амадей - Air From Magic Flute - таба, видео

Регистрация Запомнить меня
Войти через:  Facebook Google Twitter Vk Yandex Mail.ru

Моцарт Вольфганг Амадей - Air From Magic Flute - таба, видео

Печатать
Просмотров: 215
Уроки эстрадного вокала в Санкт-Петербурге
This is Air from Magic Flute ':)
If you have Mozart in your heart ...
Enjoy!!!
e|-2--0--|------------0--------------|-0----2----0-----0-----|-----------
B|-------|-3-----3----------3--2--3--|-2----3----2--------2--|-----------
G|-------|-2-------------------------|-2----2----2-----------|-2---------
D|-------|-0----------0--------------|-----------------------|-----------
A|-------|---------------------------|-0----0----0-----------|-0---------
E|-------|---------------------------|-----------------------|-----------
1       2                           3                       4
 

--------5----------5--|-2----0-------------2--|-2-----0-----0--2--------
----------------------|-3----2----3-----3-----|----------3--------------
-----2----------------|-2----2----2-----------|-------------------------
----------------------|-0---------0-----------|-------------------------
0-------0-----0-------|------0----------------|-0--------------0--------
----------------------|-----------------------|-------------------------
                      5                       6
 

0-----0--|-0----2----0-----0----|-5-----5--0-----0--|-------------------
---3-----|-2----3----2----------|-------------------|-2----0------------
---------|-2----2----2----------|-6-----6--1-----1--|-2----1----2-------
---------|----------------------|-------------------|------2------------
---------|-0----0----0----------|-0-----------------|-0---------0-------
---------|----------------------|----------0--------|-------------------
         7                      8                   9
 

------|--0-----0----2-----0-----0--|--2----0----------5----|------------
---2--|--2-----2-------------3-----|--3----2----3----------|--2-----2---
2-----|--2-----2-------------------|--2----2----2----------|--2-----2---
------|----------------------------|--0---------0----------|------------
------|--0----------0--------------|-------0---------------|--0---------
------|----------------------------|-----------------------|------------
      10                           11                      12
 

0--------------|--0----2----0----------|-----------0--2--3--5-----3-----
------3--2--3--|--2----3----2-----2----|--3-----3-----------------2-----
---------------|--2----2----2-----0----|--2-----------------------------
---------------|-----------------------|--0-----------------------------
0--------------|--0----0----0----------|--------------------0-----------
---------------|-----------------------|--------------------------------
               13                      14
 

|--2--------0--2--3--5--------0--|--2-----2--3-----2--0--2--|--3--------
|--3-----3-----------------3-----|--------------------------|--0--------
|--------------------------------|--------------------------|--0--------
|--0-----------------0-----------|--0--------0--------------|--0--------
|--------------------------------|--------------------------|-----------
|--------------------------------|--------------------------|-----------
15                               16                         17
 

5----7-----3--0--|--------------------------|--------2--0---------------
-----0-----------|--2-----2--3-----2--0--2--|--3-----------2--3-----3---
-----0-----------|--2-----2-----------------|---------------------------
-----0-----------|--------------------------|-----------------0---------
-----------------|--0--------0--------------|--0------------------------
-----------------|--------------------------|---------------------------
                 18                         19
 

0--2--3--|--5-----2----2--------0--2--3--|--5----------------------|----
---------|--------2----3-----3-----------|--------2----3-----3-----|----
---------|-------------------------------|--------0----2--------2--|----
---------|-------------0-----------------|-------------0-----------|----
---------|--0----------------------------|--0----------------------|----
---------|-------------------------------|-------------------------|----
         20                              21                        22
 

2--------5--5-----3--2--0--|-------2------------------------------------|e
3--------------------------|--3----3----3-------------------------------|B
------2--------------------|--2----2----2-------------------------------|G
---------------------------|------------0-------------------------------|D
0-----------0--------------|--0----0------------------------------------|A
---------------------------|--------------------------------------------|E
                           23
There's a Simpson episode in which Mozart(played by Bart)says "Eat my
pantaloons!"
Nannerl is played by Lisa, and Homer is their dad, Leopold.
Mozart's nickname used by his family was "Wolferle".
Beethoven(Nelson)is playing Haydn's Kaiserquartett.
#==(o)

     
Добавлено: 12.09.2013
http://primanota.ru/mozart-wolfgang-amadeus/air-from-magic-flute-chords.htm
Привет, Гость.
Предлагаем пройти революционный курс по гитаре.
Подарок от PrimaNota.Ru, забирай!