PrimaNota.ru - самый крупный в мире бесплатный архив песенных текстов, аккордов, табулатур и нот


Moxy Fruvous - Fell In Love - текст песни, таба, видео

Регистрация Запомнить меня
Войти через:  Facebook Google Twitter Vk Yandex Mail.ru

Moxy Fruvous - Fell In Love - текст песни, таба, видео

Печатать
Просмотров: 59
Авторы: Moxy Früvous

Title:  Fell in Love
Author: Moxy Fruvous
Album:  Bargainville, 1992
Tab by: Ben Hoffman, benjaminkh@goshen.edu

This tab is entirely my own work.

All chords in the chorus and bridge are either standard open or bar chords,
with the exception of the Emaj7/9 which is played 022442 (a partial bar).
The acoustic guitar part (this tab) is joined by an electric bass at the
end of the first verse.  A tamborine hits on beats 2 and 4 of every measure
in the chorus, and shakes sixteenth notes during the bridge.  Enjoy!
		-Ben

--Structure--
Intro
Verse 1,2
Chorus
Verse 3,4
Chorus
Bridge
Verse 5,6
Fine
-------------

Intro:

|----0-------0---|----0-------0---|
|----0-------0---|----0-------0---|
|--4---4---4-----|--4---4---4-----|
|2---------------|2---------------|
|----------------|----------------|
|--------0-------|--------0-------|

Verses:

|----0-------0---|----0-------0---|----0-----------|----0-----------|
|----0-------0---|----2-------0---|----0-------0---|----0-------0---|
|--4---4---4---4-|--4---4---4---4-|--2---2-----1---|--2---2-----2---|
|2-------1-------|----------------|----------2---2-|----------2-----|
|----------------|4-------2-------|0---------------|0-------2-----2-|
|----------------|----------------|--------0-------|----------------|


|----0-------0---|----0-----------|------------0---|----0-------0---|
|----3-------0---|----1-----1---0-|----0-------2---|----0-------0---|
|--1---1---1---1-|--2---2-------2-|----1-----4---4-|--2---2---2---2-|
|0-------0-------|----------------|--2-------------|----------------|
|----------------|0-------0---2---|--------4-------|0-------0-------|
|----------------|----------------|0-----0---------|----------------|

End of verse 1:      End of verse 3:

|----------------|   |----------------|
|----2---0---0---|   |2---0---0-0-----|
|----4-----1-2---|   |4-----1-2-2-----|
|--2---2-------4-|   |--------4-4-----|
|0-------2-------|   |----------------|
|----------------|   |----------------|

End of verses 2 and 4 (into chorus):

        "and we"    

|----0---0---0---|
|----0---0---0---|
|--2---2-2---2---|
|--------2---2---|
|0-------0---0---|
|----------------|


Chorus:

Asus2  Am      F
And we fell in love,
           C                       G       F
and the sunshine shone from the sunshine above
C       F7 
Fell in love
F7           Emaj7/9
Whole loaf love


*Bridge:
                  C#m
Take a look around
                  G#
Sun has gone down
                  F#
And I've had a good time
                  B
Have you had a good time

     Asus2           E
I've loved without loss
  D             A
I put down my cross
                F#m
You know what I know
                A
An' I'm goin' go

Fine:

|----0-------0---|----0-------0---|----0-----------|----------------|
|----0-------0---|----0-------0---|----0-----------|0---------------|
|--2---2---2---2-|--2---2---2---2-|--2---2---2-----|1---------------|
|----------------|----------------|----------------|2---------------|
|0-------0-------|0-------0-------|0-------0---2---|----------------|
|----------------|----------------|----------------|0---------------|

-------------------------------------------------
     
Добавлено: 28.11.2013
Другие материалы по этой песне:

Страница создана 29.04.2012
http://primanota.ru/moxy-fruvous/fell-in-love-chords.htm
Привет, Гость.
Предлагаем пройти революционный курс по гитаре.
Подарок от PrimaNota.Ru, забирай!