PrimaNota.ru - самый крупный в мире бесплатный архив песенных текстов, аккордов, табулатур и нот


Movits - Swing Fr Hyresgstfreningen - бас-таба

Регистрация Запомнить меня
Войти через:  Facebook Google Twitter Vk Yandex Mail.ru

Movits - Swing Fr Hyresgstfreningen - бас-таба

Печатать
Просмотров: 65
Swing För Hyresgästföreningen
Movits!


|-4----------4----------4---------------------------|
|---------------------------------------------------|
|-----5-4-4------5-4-4------5-4-4-5-5-5-4-4-4-------|
|---5----------5----------5-------------------------|



|-4----------4----------4---------------------------|
|---------------------------------------------------|
|-----5-4-4------5-4-4------5-4-4-5-5-5-4-4-4-------|
|---5----------5----------5-------------------------|

Repeat this pattern.
Добавлено: 31.01.2014
Другие материалы по этой песне:
  • Аккорды и текст

Страница создана 31.01.2014
http://primanota.ru/movits/swing-fr-hyresgstfreningen-chords.htm
Привет, Гость.
Предлагаем пройти революционный курс по гитаре.
Подарок от PrimaNota.Ru, забирай!