PrimaNota.ru - самый крупный в мире бесплатный архив песенных текстов, аккордов, табулатур и нот


Moving On - Emochic - таба, видео

Регистрация Запомнить меня
Войти через:  Facebook Google Twitter Vk Yandex Mail.ru

Moving On - Emochic - таба, видео

Печатать
Просмотров: 119
Уроки эстрадного вокала в Санкт-Петербурге
Emochic
intro
guitarra 1
e|------3-----3-----3---|
B|--3h4---4-3---4-3-----|
G|----------------------|
D|----------------------|x7
A|----------------------|
E|----------------------|

guitarra 2 (con p.m.)
e|---------------------|---------------------|
B|---------------------|---------------------|
G|---------------------|---------------------|
D|--66-66--6--66-66--6-|--88-88--8--88-88—-8-|
A|--66-66--6--66-66--6-|--88-88--8--88-88--8-|
E|--44-44--4--44-44--4-|--66-66--6--66-66--6-|

e|-----------------------------------|
B|-----------------------------------|
G|-----------------------------------|
D|--1010--1010---10---1010--1010—-10-|
A|--1010—-1010---10---1010—-1010—-10-|
E|--8-8---8-8----8----8-8---8-8---8--|

e|------------------------------------------------|
B|------------------------------------------------|
G|------------------------------------------------|
D|-88-88--8--8------------------------------------|
A|-88-88--8--8-->dejan sonar en esta ultima nota--|
E|-66-66--6--6------------------------------------|

ahora la segunda parte del intro va así: (con p.m.) encuentren bien los cambios i tiempos!
e|----------------------------------------------------------------------|
B|----------------------------------------------------------------------|
G|----------------------------------------------------------------------|
D|--xx6xx6xx6xx6--xx8xx8xx8xx8—-x10xx10xx10xx10xx10xx10xx10xx10--xx8xx8-|x2
A|--xx6xx6xx6xx6--xx8xx8xx8xx8—-x10xx10xx10xx10xx10xx10xx10xx10—-xx8xx8-|
E|--xx4xx4xx4xx4--xx6xx6xx6xx6—-x8-xx8-xx8-xx8-xx8-xx8-xx8-xx8---xx6xx6-|

comienza un nuevo día i io ia no.............
e|---------------------------------------------------------|
B|---------------------------------------------------------|
G|---------------------------------------------------------|
D|-66666666666--88888888888--1010101010101010101010101010--|x4
A|-66666666666--88888888888--1010101010101010101010101010--|
E|-44444444444--66666666666—-8-8-8-8-8-8-8-8-8-8-8-8-8-8---|

cada día sin ti es una eternidad.........
e|-------------------------------------------|
B|-------------------------------------------|
G|-------------------------------------------|
D|-1010101010101010--8888888--66666666666666-|
A|-1010101010101010--8888888--66666666666666-|
E|-8-8-8-8-8-8-8-8---6666666--44444444444444-|

cada día q pasa es un día mas.........
e|-------------------------------------------|
B|-------------------------------------------|
G|-------------------------------------------|
D|-1010101010101010--8888888--66666666666666-|
A|-1010101010101010--8888888--66666666666666-|
E|-8-8-8-8-8-8-8-8---6666666--44444444444444-|

i ahora tocan el intro otra vez!
guitarra 1
e|------3-----3-----3---|
B|--3h4---4-3---4-3-----|
G|----------------------|
D|----------------------|x7
A|----------------------|
E|----------------------|

guitarra 2 (con p.m.)
e|---------------------|---------------------|
B|---------------------|---------------------|
G|---------------------|---------------------|
D|--66-66--6--66-66--6-|--88-88--8--88-88—-8-|
A|--66-66--6--66-66--6-|--88-88--8--88-88--8-|
E|--44-44--4--44-44--4-|--66-66--6--66-66--6-|

e|-----------------------------------|
B|-----------------------------------|
G|-----------------------------------|
D|--1010--1010---10---1010--1010—-10-|
A|--1010—-1010---10---1010—-1010—-10-|
E|--8-8---8-8----8----8-8---8-8---8--|

e|------------------------------------------------|
B|------------------------------------------------|
G|------------------------------------------------|
D|-88-88--8--8------------------------------------|
A|-88-88--8--8------------------------------------|
E|-66-66--6--6------------------------------------|

comienzo a comprender, q t necesito.........
e|---------------------------------------------------------|
B|---------------------------------------------------------|
G|---------------------------------------------------------|
D|-66666666666--88888888888--1010101010101010101010101010--|x4
A|-66666666666--88888888888--1010101010101010101010101010--|
E|-44444444444--66666666666—-8-8-8-8-8-8-8-8-8-8-8-8-8-8---|

cada día sin ti es una eternidad.........
e|-------------------------------------------|
B|-------------------------------------------|
G|-------------------------------------------|
D|-1010101010101010--8888888--66666666666666-|
A|-1010101010101010--8888888--66666666666666-|
E|-8-8-8-8-8-8-8-8---6666666--44444444444444-|

cada día q pasa es un día mas.........
e|-------------------------------------------|
B|-------------------------------------------|
G|-------------------------------------------|
D|-1010101010101010--8888888--66666666666666-|
A|-1010101010101010--8888888--66666666666666-|
E|-8-8-8-8-8-8-8-8---6666666--44444444444444-|


ahora viene esto:
guitarra 1
e|-------------|
B|-------------|
G|-------------|
D|-------------|----> token eso varias veces!!!
A|-6-5-6-5-6-8-|
E|-------------|


guitarra 2: sohloh dejen sonar
e|-----------|
B|-----------|
G|-----------|
D|--10--8--6-|x3
A|--10--8--6-|
E|--8---6--4-|

ahora viene mas rapido
guitarra 1: /esto tocan asta terminar la cancion)
e|-----------------|  |-------------------|
B|-----------------|  |-------------------|
G|-----------------|  |-------------------|
D|-----------------|x3|-------------------|
A|-6-5-6-5-6-5-6-8-|  |-10-1111-10-8-66-8-|
E|-----------------|  |-------------------|


guitarra 2: (esto tocan asta terminar la cancion)
e|-------------------------------------|
B|-------------------------------------|
G|-------------------------------------|
D|-1010101010101010--8888888--66666666-|
A|-1010101010101010--8888888--66666666-|
E|-8-8-8-8-8-8-8-8---6666666--44444444-|


i termina en
e|------|
B|------|
G|------|
D|--10--|
A|--10--|
E|--8---|

bUENO mI SEGUNDA CONTRIBUCION ACA para todos espero q les ayude y aver si la mejoran 
para mi q sale bien :)
Saludos a yecid y jorge q son de mi banda pero tienen q practicar mas jeje y saludos a 
demas cuidense
RODRIGO     LA PAZ BOLIVIA
Добавлено: 11.03.2012
Другие материалы по этой песне:
  • Аккорды и текст

Страница создана 11.03.2012
http://primanota.ru/moving-on/emochic-chords.htm
Привет, Гость.
Предлагаем пройти революционный курс по гитаре.
Подарок от PrimaNota.Ru, забирай!