PrimaNota.ru - самый крупный в мире бесплатный архив песенных текстов, аккордов, табулатур и нот


Moving On - Audio Romance - таба, видео

Регистрация Запомнить меня
Войти через:  Facebook Google Twitter Vk Yandex Mail.ru

Moving On - Audio Romance - таба, видео

Печатать
Просмотров: 109
Artista: Moving On
Cancion: AudioRomance
Afinacion : Standard
Capo: 1 traste


Esta cancion es unica, y merece ser aprendida, a continuacion les propongo la 
tablatura para tocarla
Suena mejor en guitarra acustica. El tempo lo tienen que sacar escuchando la cancion
Les recomiendo tocarla mientras la escuchan para acomododarse a los cambios y al tiempo.

AudioRomance

Intro

Em------------------------------------------------|
B-------------------------------------------------|
G---------------------------5-5-5-5-5-------------|
D---7-7-7-7-7---3-3-3-3-3---5-5-5-5-5---5-5-5-5-5-|
A---7-7-7-7-7---3-3-3-3-3---3-3-3-3-3---5-5-5-5-5-|
E---5-5-5-5-5---1-1-1-1-1---------------3-3-3-3-3-|


Verso

Em------------------------------------------------|
B-------------------------------------------------|
G-------------------------------------------------|
D---3-3-3-3-3---5-5-5-5-5---7-7-7-7-7---5-5-5-5-5-|      x4
A---3-3-3-3-3---5-5-5-5-5---7-7-7-7-7---5-5-5-5-5-|
E---1-1-1-1-1---3-3-3-3-3---5-5-5-5-5---3-3-3-3-3-|


Coro:

Em------------------------------------------------|
B-------------------------------------------------|
G---------------------------5-5-5-5-5-------------|
D---7-7-7-7-7---3-3-3-3-3---5-5-5-5-5---5-5-5-5-5-|      x2
A---7-7-7-7-7---3-3-3-3-3---3-3-3-3-3---5-5-5-5-5-|
E---5-5-5-5-5---1-1-1-1-1---------------3-3-3-3-3-|


Verso
(Aqui si cambia la forma de tocar el verso, tienes que tocar y soltar con la mano en el 
ustedes entenderan
y al final se acomodan al ritmo)

Em------------------------------------------------|
B-------------------------------------------------|
G-------------------------------------------------|
D---3-3-3-3-3---5-5-5-5-5---7-7-7-7-7---5-5-5-5-5-|      x4
A---3-3-3-3-3---5-5-5-5-5---7-7-7-7-7---5-5-5-5-5-|
E---1-1-1-1-1---3-3-3-3-3---5-5-5-5-5---3-3-3-3-3-|


Coro

Em------------------------------------------------|
B-------------------------------------------------|
G---------------------------5-5-5-5-5-------------|
D---7-7-7-7-7---3-3-3-3-3---5-5-5-5-5---5-5-5-5-5-|      x2
A---7-7-7-7-7---3-3-3-3-3---3-3-3-3-3---5-5-5-5-5-|
E---5-5-5-5-5---1-1-1-1-1---------------3-3-3-3-3-|

Puente

Aqui es donde el bajo se hace notar , y se puede acompañar con guitarra con las siguientes notas:


Em-----------------------------------------------------------------------------------------|
B------------------------------------------------------------------------------------------|
G------------------------------------------------------------------------------------------|
D---7-7-7-7-7-7-7-7-7-7---3-3-3-3-3-3-3-3-3-3---7-7-7-7-7-7-7-7-7-7---3-3-3-3-3-3-3-3-3-3--|
A---7-7-7-7-7-7-7-7-7-7---3-3-3-3-3-1-1-1-1-1---7-7-7-7-7-7-7-7-7-7---3-3-3-3-3-3-3-3-3-3--|
E---5-5-5-5-5-5-5-5-5-5---1-1-1-1-1-1-1-1-1-1---5-5-5-5-5-5-5-5-5-5---1-1-1-1-1-1-1-1-1-1--|


Coro

Em------------------------------------------------|
B-------------------------------------------------|
G---------------------------5-5-5-5-5-------------|
D---7-7-7-7-7---3-3-3-3-3---5-5-5-5-5---5-5-5-5-5-|      x3
A---7-7-7-7-7---3-3-3-3-3---3-3-3-3-3---5-5-5-5-5-|
E---5-5-5-5-5---1-1-1-1-1---------------3-3-3-3-3-|


Outro
Em--------------------------------------------------------|
B---------------------------------------------------------|
G---------------------------5-5-5-5-5---------------------|
D---7-7-7-7-7---3-3-3-3-3---5-5-5-5-5---5-5-5-5-5---7-7-7-|
A---7-7-7-7-7---3-3-3-3-3---3-3-3-3-3---5-5-5-5-5---7-7-7-|
E---5-5-5-5-5---1-1-1-1-1---------------3-3-3-3-3---5-5-5-|


Disfruten tocando esta rola y cualkier cosa o pregunta dejenla publicada


http://www.lazona.com/profile/movingon
Добавлено: 20.03.2012
Другие материалы по этой песне:

Страница создана 20.03.2012
http://primanota.ru/moving-on/audio-romance-chords.htm
Привет, Гость.
Предлагаем пройти революционный курс по гитаре.
Подарок от PrimaNota.Ru, забирай!