PrimaNota.ru - самый крупный в мире бесплатный архив песенных текстов, аккордов, табулатур и нот


Moving Mountains - Eastern Leaves - таба, видео

Регистрация Запомнить меня
Войти через:  Facebook Google Twitter Vk Yandex Mail.ru

Moving Mountains - Eastern Leaves - таба, видео

Печатать
Просмотров: 121
Whew! This one took all day! Tabbed completely by ear
(had to use 1/2 tempo with Quicktime to hear some of the notes in the Climax.)
I'm sure that there are little errors here and there,
Constructive criticism would be much appreciated!

"-" = 1/16th note (except in part of the interlude)

If you wish you simplify the song a bit, try using the chords in the chart from the
"Where Two Bodies Lie Acoustic" tab.
But make sure your guitar is tuned D|A|D|F#|a|e.

Enjoy



Tuning: D|A|C#|E|a|e



Intro:
   D               A                            
 e|--------------------------------|
 a|--------------------------------|
 E|--------------------------------|
C#|-0---0---0---0---0---0---0---0--|
 A|---0---0---0---0---0---0---0---0|
 D|0-0-0-0-0-0-0-0-7-7-7-7-7-7-7-7-|

   D               F#m             
 e|--------------------------------|
 a|--------------------------------|
 E|--------------------------------|
C#|-0---0---0---0---0---0---0---0--|
 A|---0---0---0---0---0---0---0---0|
 D|0-0-0-0-0-0-0-0-4-4-4-4-4-4-4-4-|

   E               F#m     D
 e|----------------------------------------|
 a|----------------------------------------|
 E|----------------------------------------|
C#|-0---0---0---0---0---0---0---0---0---0--|2X
 A|---0---0---0---0---0---0---0---0---0---0|
 D|2-2-2-2-2-2-2-2-4-4-4-4-0-0-0-0-0-0-0-0-|

   A               D                 F#m
 e|------------------------------2X||----------------|
 a|--------------------------------||----------------|
 E|--------------------------------||----------------|
C#|-0---0---0---0---0---0---0---0--||-0---0---0---0--|
 A|---0---0---0---0---0---0---0---0||---0---0---0---0|
 D|7-7-7-7-7-7-7-7-0-0-0-0-0-0-0-0-||4-4-4-4-4-4-4-4-|

  E               F#m     D          D          
 e|------------------------------2X||------------------------|
 a|--------------------------------||------------------------|
 E|--------------------------------||------------------------|
C#|-0---0---0---0---0---0---0---0--||-0---0---0---0---0-0-0-0|
 A|---0---0---0---0---0---0---0---0||---0---0---0---0--4-2-0-|
 D|2-2-2-2-2-2-2-2-4-4-4-4-0-0-0-0-||0-0-0-0-0-0-0-0-0-------|

Break: 2x
   F#m             E                
 e|--------------------------------|
 a|-------0---------------0--------|
 E|---0---------------0------------|
C#|-0---0---0-0-0-0-0---0---0-0-0-0|
 A|----------4-2-0-----------4-2-0-|
 D|4-4---4---------2-2---2---------|

   D               A                
 e|------------------------|-1st-end||-2nd-end|
 a|-------0---------------0|--------||--------|
 E|---0---------------0----|--------||---0---0|
C#|-0---0---0-0-0-0-0---0--|-0-0-0-0||-0---0--|
 A|----------4-5-7---------|--4-2-0-||--------|
 D|0-0---0---------7-7---7-|--------||--7---7-|

Verse:
   D               A                
 e|--------------------------------|
 a|-------0---------------0--------|
 E|---0-------0---0---0-------0---0|
C#|-0---0---0---0---0---0---0---0--|
 A|--------------------------------|
 D|0-0---0---0---0-7-7---7---7---7-| 

   D               F#m              
 e|--------------------------------|
 a|-------0-4-------------0--------|
 E|---0-------0---0---0-------0---0|
C#|-0---0-------0---0---0---0---0--|
 A|--------------------------------|
 D|0-0---0-------0-4-4---4---4---4-|

   E               F#m     D           
 e||-2X---------------------|-1st-end||-2nd-end--------|
 a||-------0---------------0|--------||-------0--------|
 E||---0-------0---0---0----|---0---0||---0-------0---0|
C#||-0---0---0---0---0---0--|-0---0--||-0---0---0---0--|
 A||------------------------|--------||----------------|
 D||2-2---2---2---2-4-4---4-|--0---0-||--0---0---0---0-|


Interude:
   A
 e|--(0)-----(0)----(0)-----(0)---|
 a|---0-------0------0-------0----|
 E|-0---0-0-2--2-2-4---4-4-5---5-5|
C#|-------------------------------|4X
 A|0-0---0-0-0--0-0-0---0-0-0---0-|
 D|-------------------------------|

                     Lead-(3 seperate guitars combined.)
    A
  e|-----------(2X)-----------------| |  use the open strings  |
  a|00000000000000000000000000000000| | (besides C#) to build  |
  E|--------------------------------| |volume before the Climax|
 C#|88888888555555557777777788888888|
  A|--------------------------------|
  D|--------------------------------|
             A
           e|-----------(2X)----------------------------------|
           a|00000000-0--0--0--0--0--0--0--0--0000000000000000|
           E|99999999-10-10-10-10-10-10-10-10-7777777755555555|
          C#|88888888-x--x--x--x--x--x--x--x--7777777788888888|
           A|---------9--9--9--9--9--9--9--9------------------|
           D|-------------------------------------------------|


Climax:
   D               F#m         A   
 e|-----------------------0--------|
 a|---0-------0-------0-------0----|
 E|-0---0---0---0-0-0---0---0---0-0|
C#|3-3---0-0-0---0-3-0---0---0-3-0-|
 A|0~-----5--------4-----------0~--|
 D|0~--------------4~--------------|

   D               F#m     E   A   
 e|--------------------------------|
 a|---0-------0-------0-------0----|
 E|-0---0---0---0-0-0---0-0-0---0-0|
C#|3-3---0-0-0---0-3-0---0---0-3-0-|
 A|0~-----5--------4~------2~--0~--|
 D|0~--------------4~------2~------|

   D               F#m             
 e|--------------------------------|
 a|---0-------0-------0-------0----|
 E|-0---0---0---0-0-0---0-0-0---0-0|
C#|3-3---0-0-0---0-3-0---0-0-0---0-|
 A|0~-----5--------4~--------------|
 D|0~--------------4~--------------|

   E               F#m         A   
 e|--------------------------------|
 a|---0-------0-------0-------0----|
 E|-0---0-0-0---0-0-0---0-0-0---0-0|
C#|--0---0-0-0---0-3-0---0-0-0-3-0-|
 A|2~--------------4~----------0~--|
 D|2~--------------4~--------------|

   D               F#m         A   
 e|--------------------------------|
 a|---0-------0-------0---0---0----|
 E|-0---0---0---0-0-0---0---0---0-0|
C#|3-3---0-0-0-----3-0---0---0-3-0-|
 A|0~-----5------5/4-----------0~--|
 D|0~--------------4~--------------|

   D               F#m     E   A   
 e|--------------------------------|
 a|---0-------0-------0-------0----|
 E|-0---0---0---0-0-0---0-0-0---0-0|
C#|3-3---0-0-0---0-3-0---0---0-3-0-|
 A|0~-----5--------4~------2~--0~--|
 D|0~--------------4~------2~------|

   D               F#m             
 e|-------0---------------0--------|
 a|---0-------0-------0-------0----|
 E|-0---0---0---0-0-0---0---0---0-0|
C#|3-3---0---0---0-3-0---0---0---0-|
 A|0~--------------4~--------------|
 D|0~--------------4~--------------|

   E               F#m         A   
 e|-------0---------------0--------|
 a|---0-------0--20---0------------|
 E|-0---0---0---0---0---0---0------|
C#|--0---0---0-----3-0---0---------|
 A|2~--------------4~--------4-2-0-|
 D|2~--------------4~--------------|

Finale/Outro: 4X
   F#m             E              
 e|-------0---------------0--------|
 a|---0---------------0------------|
 E|-0---0-----------0---0----------|
C#|---------0-0-0-0---------0-0-0-0|
 A|----------4-2-0-----------4-2-0-|
 D|4-4---4---------2-2---2---------|

   D               A              
 e|-------0---------------0--------|
 a|---0---------------0------------|
 E|-0---0-----------0---0----------|
C#|---------0-0-0-0---------0-0-0-0|
 A|----------4-5-7-----------4-2-0-|
 D|0-0---0---------7-7---7---------|




-Use this either as an acoustic chords tab, or a rough bassline-


Intro:
D                 A  D              F#m
  I won't say it for, any reason at all.
       E      F#m      D        E       F#m     D    D
Just know, I can't explain The words I fail to say

A D                        A  D                            F#m
   I can't drive another road, That doesn't guide me back home.
  E          F#m        D     E              F#m         D  D>
Alone, some day I will say, I am all I am, I am all the same


Break: (F#m     E      D       A       )2X


Verse:
D                            A   D                          F#m
 Driving home to darkened streets. Please show yourself to me.
    E                       F#m             D
And I fall down, into the rhythm of losing you.
    E                    F#m                D
But I still choose, the comfort in finding you.


(Interlude) A---


Climax:
D                       F#m           A   D
 But you can't fail to see, anything but me,
                       F#m           E   A       D
And the world that we make, when it falls into place.
D                      F#m                         E      F#m  A
 I think it's fair to say, that we have both seen better days.
D                     F#m          A   D
 And I can't seem to be, anything but me,
                 F#m           E A       D
And a fool to myself, I ain't got no one else
                      F#m                        E      F#m>
I think it's fair to say that we have both seen better days


Finale:
        F#m            E
Well I hope that you know
        D             A
That I can't feel a thing
           F#m            E
From this high that I've got 
           D                            A
But everything is burning up inside my heart


Outro:
F#m
 I swear that I've finally taken
E
 My words that are bruised and broken
D
 To places I've never spoken
A
 Way down, yeah way down


Duet:
   (down)     F#m
      Well I hope, 
                 And I swear that I'm shifting forward.
(forward)     E
   that you know,
                 And I'll try to provide it all for you.
              D
            (you)     
      That I can't,
                  For reasons I've never spoken.
 (spoken)     A
     feel a thing.
                 Way down, yeah way down.
Добавлено: 14.09.2013
Другие материалы по этой песне:
  • Аккорды и текст

Страница создана 14.09.2013
http://primanota.ru/moving-mountains/eastern-leaves-chords.htm
Привет, Гость.
Предлагаем пройти революционный курс по гитаре.
Подарок от PrimaNota.Ru, забирай!