PrimaNota.ru - самый крупный в мире бесплатный архив песенных текстов, аккордов, табулатур и нот


Moving Mountains - 8105 - текст песни, таба, видео

Регистрация Запомнить меня
Войти через:  Facebook Google Twitter Vk Yandex Mail.ru

Moving Mountains - 8105 - текст песни, таба, видео

Печатать
Просмотров: 91
Уроки эстрадного вокала в Санкт-Петербурге
I figured no one has tabbed it so I shall. It's a pretty easy song, 
still in the process of learning by ear but here's what I know so far. 
I'll add as I learn more so Updates will be in order. This is my first tab, I'm learning by ear so
forgive me for any mistakes. if you play their original version from the Pneuma Album its played on an 
electric guitar with a capo on 6th? which is played the same way I think.

https://www.youtube.com/watch?v=vCa63v_jZl4

Not sure where every part of the song is played so give it a listen.


Standard Tuning
eBGDAE

******************
/  slide up
\  slide down
p  pull-off
******************

Beginning 
Starts 0:09
im not 100% sure with the pull off's in the beginning
e|----------0-0--------------------|    |------0-0------------|
B|-------------3/5\3p0-------------|    |----------3/5555/888-|
G|--------0-----------2/4\2p0------| x6 |----0----------------|
D|-------2-2-----------------------|    |---2-2---------------|
A|------3--------------------------|    |--3------------------|
E|---------------------------------|    |---------------------|

e|----------0-0--------------------|
B|-------------3/5\3p0-------------|
G|--------0-----------2/4\2p0------|
D|-------2-2-----------------------| x2
A|------3--------------------------|
E|---------------------------------|

e|---------------------------------------------------|
B|---------0--------0-------0--------0---------------|
G|-------0--0-------------0--0-----------------------|
D|--------0-------0---0----0-------0---0-------------|
A|---------------------------------------------------|
E|-----0--------0--------2--------2------------------|

e|----------0-0--------------------|
B|-------------3/5\3p0-------------|
G|--------0-----------2/4\2p0------|
D|-------2-2-----------------------| 
A|------3--------------------------|
E|---------------------------------|


At 3:57

e|-----------------------------------------------------|    
E|---------0-----------0-----------0-----------0-------|    
B|------0----0------0----0------0----0------0----0-----|    
G|-----2--2----2---2--2----2---2--2----0---2--2----2---| x4 
D|---3-----------3-------------------------------------|    
A|---------------------------0-----------0-------------|

e|-------------------------------------------|
B|---------0--------0------------------------|
G|------0--------0----------0--0--------0--0-|
D|-----2--2-----2--2-------2--2-------2--2---|
A|---3---------------------------------------|
E|------------0----------0----------0--------|

e|-----------------------------------------------------|    
E|---------0-----------0-----------0-----------0-------|    
B|------0----0------0----0------0----0------0----0-----|    
G|-----2--2----2---2--2----2---2--2----0---2--2----2---| x5 pause, play 13 more times.
D|---3-----------3-------------------------------------|    
A|---------------------------0-----------0-------------|

on the end of the 13th play, strum

e|--0-|
B|--0-|
G|--0-|
D|--2-| x5
A|--3-|
E|--0-|

This all is repeated throughout the song so with what's tabbed its not deemed unplayable
Enjoy! Hope it satisfies.
Добавлено: 30.09.2015
Другие материалы по этой песне:
  • Аккорды и текст

Страница создана 26.08.2014
http://primanota.ru/moving-mountains/8105-chords.htm
Привет, Гость.
Предлагаем пройти революционный курс по гитаре.
Подарок от PrimaNota.Ru, забирай!