PrimaNota.ru - самый крупный в мире бесплатный архив песенных текстов, аккордов, табулатур и нот


Movielife - Hey - аккорды и текст, таба, видео

Регистрация Запомнить меня
Войти через:  Facebook Google Twitter Vk Yandex Mail.ru

Movielife - Hey - аккорды и текст, таба, видео

Печатать
Просмотров: 165
Hey
Movielife
Artist: the Movielife
Song: Hey
Album: Forty Hours Train Back To Penn


A                              E 
Hey, I guess I'll figure it out
F#
The reasons why things went the way they did
D	 A
And why we can't accept it
A	E
We'd fall asleep, 
F#	 E
but not before we exorcised the evil thing that everyone hides
D	E	F#
We would lie there in my bed,
D	 E	            A
Do you remember all those nights we never slept
E  D        E	          A              F#	               D
No clothes, sweaty, doing all the things I never thought I'd do
E                      A
And I did them with you

A	E
And hey, don't feel bad.
F#	
No one can ever take away 
D  	        A        
the boardwalk trips or the subways
A	  E
I think we grew up 
F# 
past the hang-ups and the evil stares,
E                                                               
The fuck you toos and I don't cares
D	E                F#
We would lie there in my bed
D       E                   A 
Do you remember all those nights we never slept
E   D       E              A              F#                   D
No clothes, sweaty, doing all the things I never thought I'd do
E                       A
And I did them with you


Solo (Along with the chords A E F# D):
E|-------------------------------------------|
B|--------11---------------------------------|
G|-----8------------------------8--8--8------|
D|-10--------8h10p8h10p8h10---10-10-10-10----|
A|--------------------------10---------------|
E|-------------------------------------------|

E|-------------------------------------------|
B|------11-------11-------11-------11--------|
G|-------------------------------------------|
D|-8h10-----8--------8h10-----8h10-----------|
A|------------10-----------------------------|
E|-------------------------------------------|

E|-----------------88888888------------------|
B|------11111111111--------111111111111------|
G|-------------------------------------------|
D|-8h10--------------------------------------|
A|-------------------------------------------|
E|-------------------------------------------|
          
E|-------------------------------------------|
B|------11-/--13-11--------------------------|
G|------------------13-10~-------------------|
D|-8h10--------------------------------------|
A|-------------------------------------------|
E|-------------------------------------------|

A                              E 
Hey, I guess I'll figure it out
F#
The reasons why things went the way they did
D	 A
And why we can't accept it
A	E
We'd fall asleep, 
F#	 E
but not before we exorcised the evil thing that everyone hides
D	E	F#
We would lie there in my bed,
D	 E	            A
Do you remember all those nights we never slept
D              E              A            F#		D
And even though we brought it crashing to an end I loved it all
E	A
And now I love my friend
A             D                E                    F#
I loved it all, I loved the girl, I loved my friend

x
Добавлено: 24.04.2012
Другие материалы по этой песне:
  • Аккорды и текст

Страница создана 24.04.2012
http://primanota.ru/movielife/hey-chords.htm
Привет, Гость.
Предлагаем пройти революционный курс по гитаре.
Подарок от PrimaNota.Ru, забирай!