PrimaNota.ru - самый крупный в мире бесплатный архив песенных текстов, аккордов, табулатур и нот


Movements - Protection - таба, видео

Регистрация Запомнить меня
Войти через:  Facebook Google Twitter Vk Yandex Mail.ru

Movements - Protection - таба, видео

Печатать
Просмотров: 66
-------------------------------------------------------------------------------
                             PROTECTION - Movements
-------------------------------------------------------------------------------
Tabbed by: chase oblen
E-mail: oblenceo@gmail.com

Tuning: Drop D(DADGBE)



intro(strumming):          V: down
                           ^: up

    v    v    ^      v    v     ^      v    v   
e|-------------------------------------------------|
B|-------------------------------------------------|
G|--7----7----7/11---11---11----11/4---4----4------| x6
D|-------------------------------------------------| 
A|-------------------------------------------------|
D|--9----9----9/12---12---12----12/5---5----5------|

riff:

e|------------------------------------------------
B|--12----10-------------------------12----10-----
G|--------------9-9/11---11/7---2/4---------------
D|------------------------------------------------ 
A|------------------------------------------------
D|------------------------------------------------

--10-------10-------12-------12-------12--------|
-----10-10----10-10----10-10----10-10----10-----|
------------------------------------------------| x2
------------------------------------------------|
------------------------------------------------|
------------------------------------------------|


e|--10-------10-------10----10-------10------12-------12-------12--------|
B|-----10-10----10-10----10----10-10----10------10-10----10-10----10-----|
G|-----------------------------------------------------------------------|
D|-----------------------------------------------------------------------|
A|-----------------------------------------------------------------------|
D|-----------------------------------------------------------------------|

back to strumming:
    
    v             v            v     v
e|--x------x------x------x--x--x--x----------|
B|--10-----7------7------7--x--7--x----------|
G|--11-----4------4------4--x--4--x----------| repeat intro
D|--0------x------x------x--x--x--x----------|
A|--0------x------x------x--x--x--x----------|
D|--0------5------5------5--x--5--x----------|

    v   v        ^  v    ^   v       ^  v    ^   v
e|------------------------------------------------------
B|------------------------------------------------------
G|--4---4--------4--4/6--6---6-------6--6/7--7---7------
D|------------------------------------------------------
A|------------------------------------------------------
D|--5---5--------5--5/7--7---7-------7--7/9--9---9------

                      ^  v     v      ^  v    ^   v       ^  v    ^   v
--------------------------------------------------------------------------|
--------------------------------------------------------------------------|
-------7---7---7------2--2/4---4------4--4/6--6---6-------6--6/7--7---7---|
--------------------------------------------------------------------------|
--------------------------------------------------------------------------|
--9--9---9---9---9----4--4/5---5------5--5/7--7---7-------7--7/9--9---9---|

                                v   v
e|-----------------------------------------|
B|-----------------------------------------|
G|----7---7---7---7---7---7-----7-x-7-x----| repeat intro
D|-----------------------------------------|
A|-----------------------------------------|
D|--9---9---9---9---9---9---9---9-x-9-x----|


************************************

| /   slide up
| \   slide down
| h   hammer-on
| p   pull-off
| ~   vibrato
| +   harmonic
| x   Mute note
| b   Bend
| pb  Pre-bend
| br  Bend release
| pbr Pre-bend release
| brb Bend release bend

************************************
Добавлено: 03.06.2016
Другие материалы по этой песне:
  • Аккорды и текст

Страница создана 03.06.2016
http://primanota.ru/movements/protection-chords.htm
Привет, Гость.
Предлагаем пройти революционный курс по гитаре.
Подарок от PrimaNota.Ru, забирай!