PrimaNota.ru - самый крупный в мире бесплатный архив песенных текстов, аккордов, табулатур и нот


Mourn - Your Brain Is Made Of Candy - таба, видео

Регистрация Запомнить меня
Войти через:  Facebook Google Twitter Vk Yandex Mail.ru

Mourn - Your Brain Is Made Of Candy - таба, видео

Печатать
Просмотров: 147
Mourn - Your Brain is Made of Candy
transcribed by Steve Pordon

Notes:
Tuning: EADGBe
Dots beneath tab are quarter note timing marks
Not an overly complex song, but Mourn rocks hard enough to make me give a shit about new music again.

 Guitar 1 (right channel--slight arpeggiation):
|-----------------|-----------------|-----------------|-----------------|
|---------0-------|---------0-------|---------0-------|---------0-------|
|*2-------0-------|-2-------0-------|-2-------0-------|-2-------0------*| x4
|*3-------2-------|-3-------2-------|-3-------2-------|-3-------2------*|
|-3-------3-------|-3-------3-------|-3-------3-------|-3-------3-------|
|-----------------|-----------------|-----------------|-----------------|
  .   .   .   .     .   .   .   .     .   .   .   .     .   .   .   .   

 Guitar 1 (right channel, palm muted):
|-----------------|-----------------|-----------------|-----------------|
|---------0-0-0---|---------0-0-0---|---------0-0-0---|---------0-0-0---|
|-2-2-2-0-0-0-0-0-|-2-2-2-0-0-0-0-0-|-2-2-2-0-0-0-0-0-|-2-2-2-0-0-0-0-0-|
|-3-3-3-3-2-2-2-2-|-3-3-3-3-2-2-2-2-|-3-3-3-3-2-2-2-2-|-3-3-3-3-2-2-2-2-|
|-3-3-3-3-3-3-3-3-|-3-3-3-3-3-3-3-3-|-3-3-3-3-3-3-3-3-|-3-3-3-3-3-3-3-3-|
|-----------------|-----------------|-----------------|-----------------|
| .   .   .   .     .   .   .   .     .   .   .   .     .   .   .   .   |
|                                                                       |
| Guitar 2 (left channel):                                              |
|-----------------|-----------------|-----------------|-----------------|
|-3-5-3-5-5-3-5-3-|-5-3-5-3-5-3-5-3-|-5-3-5-3-5-3-5-3-|-5-3-5-3-5-3-5-3-|
|-----------------|-----------------|-----------------|-----------------|
|-----------------|-----------------|-----------------|-----------------|
|-----------------|-----------------|-----------------|-----------------|
|-----------------|-----------------|-----------------|-----------------|
  .   .   .   .     .   .   .   .     .   .   .   .     .   .   .   .   


 Guitar 1 (right channel, palm muted):
|-----------------|-----------------|-----------------|-----------------|
|---------0-0-0---|---------0-0-0---|---------0-0-0---|---------0-0-0---|
|*2-2-2-0-0-0-0-0-|-2-2-2-0-0-0-0-0-|-2-2-2-0-0-0-0-0-|-2-2-2-0-0-0-0-0*|
|*3-3-3-3-2-2-2-2-|-3-3-3-3-2-2-2-2-|-3-3-3-3-2-2-2-2-|-3-3-3-3-2-2-2-2*|
|-3-3-3-3-3-3-3-3-|-3-3-3-3-3-3-3-3-|-3-3-3-3-3-3-3-3-|-3-3-3-3-3-3-3-3-|
|-----------------|-----------------|-----------------|-----------------|
| .   .   .   .     .   .   .   .     .   .   .   .     .   .   .   .   |
|                                                                       | x3
| Guitar 2 (left channel):                                              |
|-----------------|-----------------|-----------------|-----------------|
|-5-3-5-3-5-3-5-3-|-5-3-5-3-5-3-5-3-|-5-3-5-3-5-3-5-3-|-5-3-5-3-5-3-5-3-|
|*----------------|-----------------|-----------------|----------------*|
|*----------------|-----------------|-----------------|----------------*|
|-----------------|-----------------|-----------------|-----------------|
|-----------------|-----------------|-----------------|-----------------|
  .   .   .   .     .   .   .   .     .   .   .   .     .   .   .   .   


 Guitar 1 (right channel, staccato):
|-----------------|-----------------|-----------------|-----------------|
|-----------------|-----------------|-----------------|-----------------|
|*2---2---0---0---|-2---2---0---0---|-2---2---0---0---|-2---2---0---0--*|
|*3---3---2---2---|-3---3---2---2---|-3---3---2---2---|-3---3---2---2--*|
|-3---3---3---3---|-3---3---3---3---|-3---3---3---3---|-3---3---3---3---|
|-----------------|-----------------|-----------------|-----------------|
| .   .   .   .     .   .   .   .     .   .   .   .     .   .   .   .   |
|                                                                       | x4
| Guitar 2 (left channel):                                              |
|-----------------|-----------------|-----------------|-----------------|
|-5-3-5-3-5-3-5-3-|-5-3-5-3-5-3-5-3-|-5-3-5-3-5-3-5-3-|-5-3-5-3-5-3-5-3-|
|*----------------|-----------------|-----------------|----------------*|
|*----------------|-----------------|-----------------|----------------*|
|-----------------|-----------------|-----------------|-----------------|
|-----------------|-----------------|-----------------|-----------------|
  .   .   .   .     .   .   .   .     .   .   .   .     .   .   .   .   

 Guitar 1 (right channel):
|-----------------|-----------------|-----------------|-----------------|
|---------0-0-0-0-|---------0-0-0-0-|---------0-0-0-0-|---------0-0-0-0-|
|-2-2-2-2-0-0-0-0-|-2-2-2-2-0-0-0-0-|-2-2-2-2-0-0-0-0-|-2-2-2-2-0-0-0-0-|
|-3-3-3-3-2-2-2-2-|-3-3-3-3-2-2-2-2-|-3-3-3-3-2-2-2-2-|-3-3-3-3-2-2-2-2-|
|-3-3-3-3-3-3-3-3-|-3-3-3-3-3-3-3-3-|-3-3-3-3-3-3-3-3-|-3-3-3-3-3-3-3-3-|
|-----------------|-----------------|-----------------|-----------------|
| .   .   .   .     .   .   .   .     .   .   .   .     .   .   .   .   |
|                                                                       |
| Guitar 2 (left channel):                                    |
|-----------------|-----------------|-----------------|-----------------|
|---10------------|---10------------|---10------------|---10------------|
|-10--------------|-10--------------|-10--------------|-10--------------|
|-----------------|-----------------|-----------14----|-----------14----|
|---------15------|---------15------|---------15------|---------15------|
|-----------------|-----------------|-----------------|-----------------|
  .   .   .   .     .   .   .   .     .   .   .   .     .   .   .   .   
(there are easier ways, but this is how Carla plays it on the studio vid)


 Guitar 1 (right channel):
|-----------------|-----------------|-----------------|-----------------|
|---------0-0-0-0-|---------0-0-0-0-|---------0-0-0-0-|---------0-0-0-0-|
|*2-2-2-2-0-0-0-0-|-2-2-2-2-0-0-0-0-|-2-2-2-2-0-0-0-0-|-2-2-2-2-0-0-0-0*|
|*3-3-3-3-2-2-2-2-|-3-3-3-3-2-2-2-2-|-3-3-3-3-2-2-2-2-|-3-3-3-3-2-2-2-2*|
|-3-3-3-3-3-3-3-3-|-3-3-3-3-3-3-3-3-|-3-3-3-3-3-3-3-3-|-3-3-3-3-3-3-3-3-|
|-----------------|-----------------|-----------------|-----------------|
| .   .   .   .     .   .   .   .     .   .   .   .     .   .   .   .   |
|                                                                       | x3
| Guitar 2 (left channel):                                              |
|-----------------|-----------------|-----------------|-----------------|
|---10------------|---10------------|---10------------|---10------------|
|*10--------------|-10--------------|-10--------------|-10-------------*|
|*----------14----|-----------14----|-----------14----|-----------14---*|
|---------15------|---------15------|---------15------|---------15------|
|-----------------|-----------------|-----------------|-----------------|
  .   .   .   .     .   .   .   .     .   .   .   .     .   .   .   .   


 Guitar 1 (right channel--tab stretched for legibility):
|---------------------------------|---------------------------------|
|-----------------0---0---0---0---|-----------------0---0---0---0---|
|*2---2---2---2---0---0---0---0---|-2---2---2---2---0---0---0---0---|
|*3---3---3---3---2---2---2---2---|-3---3---3---3---2---2---2---2---|
|-3---3---3---3---3---3---3---3---|-3---3---3---3---3---3---3---3---|
|---------------------------------|---------------------------------|
| .       .       .       .         .       .       .       .       |
|                                                                   |
|Guitar 2 (left channel):                                           |
|---------------------------------|---------------------------------|
|-----10--------------------------|-----10--------------------------|
|*10------------------------------|-10------------------------------|
|*--------------------------------|---------------------------------|
|---------12--12--10--10--10--10--|---------12--12--10--10--10--10--|
|---------10--10--8---8---8---8---|---------10--10--8---8---8---8---|
  .       .       .       .         .       .       .       .       


 Guitar 1 (right channel--tab stretched for legibility):
|---------------------------------|---------------------------------|
|-----------------0---0---0---0---|-----------------0---0---0---0---|
|-2---2---2---2---0---0---0---0---|-2---2---2---2---0---0---0---0--*|
|-3---3---3---3---2---2---2---2---|-3---3---3---3---2---2---2---2--*|
|-3---3---3---3---3---3---3---3---|-3---3---3---3---3---3---3---3---|
|---------------------------------|---------------------------------|
| .       .       .       .         .       .       .       .       |
|                                                                   | x3
|Guitar 2 (left channel):                                           |
|---------------------------------|---------------------------------|
|-----10--------------------------|-----10--------------------------|
|-10------------------------------|-10-----------------------------*|
|---------------------------------|--------------------------------*|
|---------12--12--10--10--10--10--|---------12--12--10--10--10--10--|
|---------10--10--8---8---8---8---|---------10--10--8---8---8---8---|
  .       .       .       .         .       .       .       .       
                  At the end of the song, don't play last notes ^
Добавлено: 27.07.2015
Другие материалы по этой песне:
  • Аккорды и текст

Страница создана 27.07.2015
http://primanota.ru/mourn/your-brain-is-made-of-candy-chords.htm
Привет, Гость.
Предлагаем пройти революционный курс по гитаре.
Подарок от PrimaNota.Ru, забирай!