PrimaNota.ru - самый крупный в мире бесплатный архив песенных текстов, аккордов, табулатур и нот


Mourn - Jack - таба, видео

Регистрация Запомнить меня
Войти через:  Facebook Google Twitter Vk Yandex Mail.ru

Mourn - Jack - таба, видео

Печатать
Просмотров: 154
Mourn - Jack
Track 9 from the album "Mourn" (Sones Records 2014).

Tabbed by Isaac Murguia, November 2014.
Originally uploaded to Ultimate-Guitar.com
Contact: www.youtube.com/Goadiroth

INTRO:
  Guitar 1
e|-------------------|
B|-------------------|
G|-10---8---10---8---|
D|-11---9---11---9---|
A|-11---9---11---9---|
E|-9----7---9----7---| [x2]

  Guitar 2 (use palm mute)
e|----------------------------------------|      |---------------------------|
B|----------------------------------------|      |---------------------------|
G|----------------------------------------|      |---------------------------|
D|----------------------------------------|      |---------------------------|
A|-11-11-11-11-11-11-11-0-9-9-9-9-9-9-9-0-|      |-11-11-11-11-11-11-11-0-9--|
E|-9--9--9--9--9--9--9--0-7-7-7-7-7-7-7-0-| [x3] |-9--9--9--9--9--9--9--0-7--|

PRE-CHORUS:
e|-----------------------|-----------------------|
B|-----------------------|-----------------------|
G|-6666666---------------|-6666666---------------|
D|-6666666-x-66-x-5555-x-|-6666666-x-66-x-7777-x-|
A|-4444444-x-66-x-5555-x-|-4444444-x-66-x-7777-x-|
E|---------x-44-x-3333-x-|---------x-44-x-5555-x-|

e|-----------------------|-----------------------|
B|-----------------------|-----------------------|
G|-6666666---------------|-6666666---------------|
D|-6666666-x-66-x-5555-x-|-6666666-x-66-x-7--7-x-|
A|-4444444-x-66-x-5555-x-|-4444444-x-66-x-7--7-x-|
E|---------x-44-x-3333-x-|---------x-44-x-5--5-x-|

CHORUS:
  Guitar 1
e|------------------------|-------------------------|
B|-9----7------9----7-----|-9----7-----------9----7-|
G|----9----8------9---9-8-|----9----8--6-4------9---|
D|------------------------|-------------------------|
A|------------------------|-------------------------|
E|------------------------|-------------------------|
  Guitar 2
e|--------------------------------|----------------------------777-|
B|--------------------------------|----------------------------777-|
G|-10-10-10-10-10-10-10-x-8888888-|-10-10-10-10-10-10-10-x-8888888-|
D|-11-11-11-11-11-11-11-x-9999999-|-11-11-11-11-11-11-11-x-9999----|
A|-11-11-11-11-11-11-11-x-9999999-|-11-11-11-11-11-11-11-x-9999----|
E|-9--9--9--9--9--9--9--x-7777777-|-9--9--9--9--9--9--9--x-7777----|

e|----------------------------7-77-|--------------------------------|
B|----------------------------7-77-|--------------------------------|
G|-10-10-10-10-10-10-10-x-888-8-88-|-10-10-10-10-10-10-10-x-8888888-|
D|-11-11-11-11-11-11-11-x-999------|-11-11-11-11-11-11-11-x-9999999-|
A|-11-11-11-11-11-11-11-x-999------|-11-11-11-11-11-11-11-x-9999999-|
E|-9--9--9--9--9--9--9--x-777------|-9--9--9--9--9--9--9--x-7777777-|

VERSE:
  Guitar 1
e|-----------7---7---|-----------7-----|-----------7---7---|----------------|
B|-9999-9999---9---7-|-9999-9999---9-7-|-9999-9999---9---7-|-7777-7777-4454-|
G|-------------------|-----------------|-------------------|----------------|
D|-------------------|-----------------|-------------------|----------------|
A|-------------------|-----------------|-------------------|----------------|
E|-------------------|-----------------|-------------------|----------------|
  Guitar 2 (play softly or palm mute)
e|----------------------------------------|
B|----------------------------------------|
G|----------------------------------------|
D|-11-11-11-11-11-11-11-0-9-9-9-9-9-9-9-0-|
A|-11-11-11-11-11-11-11-0-9-9-9-9-9-9-9-0-|
E|-9--9--9--9--9--9--9--0-7-7-7-7-7-7-7-0-| [x4]

Repeat PRE-CHORUS

ENDING:
  Guitar 1
e|------------------------|-------------------------------|
B|-9----7------9----7-----|-9----7-----------9\-----------|
G|----9----8------9---9-8-|----9----8--6-4--------8-8-8-8-|
D|------------------------|-----------------------9-9-9-9-|
A|------------------------|-----------------------9-9-9-9-|
E|------------------------|-----------------------7-7-7-7-|
  Guitar 2
e|--------------------------------|----------------------------777-|
B|--------------------------------|----------------------------777-|
G|-10-10-10-10-10-10-10-x-8888888-|-10-10-10-10-10-10-10-x-8888888-|
D|-11-11-11-11-11-11-11-x-9999999-|-11-11-11-11-11-11-11-x-9999----|
A|-11-11-11-11-11-11-11-x-9999999-|-11-11-11-11-11-11-11-x-9999----|
E|-9--9--9--9--9--9--9--x-7777777-|-9--9--9--9--9--9--9--x-7777----|

e|----------------------------7-77-|--------------------------------|
B|----------------------------7-77-|--------------------------------|
G|-10-10-10-10-10-10-10-x-888-8-88-|-10-10-10-10-10-10-10-x-8-8-8-8-|
D|-11-11-11-11-11-11-11-x-999------|-11-11-11-11-11-11-11-x-9-9-9-9-|
A|-11-11-11-11-11-11-11-x-999------|-11-11-11-11-11-11-11-x-9-9-9-9-|
E|-9--9--9--9--9--9--9--x-777------|-9--9--9--9--9--9--9--x-7-7-7-7-|

End. Please rate! :D
Добавлено: 27.07.2015
Вам также может быть интересно:
Другие материалы по этой песне:
  • Аккорды и текст

Страница создана 27.07.2015
http://primanota.ru/mourn/jack-chords.htm
Привет, Гость.
Предлагаем пройти революционный курс по гитаре.
Подарок от PrimaNota.Ru, забирай!