PrimaNota.ru - самый крупный в мире бесплатный архив песенных текстов, аккордов, табулатур и нот


Mourn - Boys Are Cunts - таба, видео

Регистрация Запомнить меня
Войти через:  Facebook Google Twitter Vk Yandex Mail.ru

Mourn - Boys Are Cunts - таба, видео

Печатать
Просмотров: 147
Mourn - Boys Are Cunts
Bonus track from the album "Mourn" (Sones Records 2014).

Tabbed by Isaac Murguia, November 2014.
Originally uploaded to Ultimate-Guitar.com
Contact: www.youtube.com/Goadiroth

INTRO:
  Guitar 1
e|---------------------|
B|---------------------|
G|-7777-7777-5555-5555-|
D|-8888-8888-6666-6666-|
A|-8888-8888-6666-6666-|
E|-6666-6666-4444-4444-| [x6]
  Guitar 2
e|-------------------------------|
B|-------------------------------|
G|-------------------------------|
D|-8-8-88888-888x-6-6-66666-666x-|
A|-8-8-88888-888x-6-6-66666-666x-|
E|-6-6-66666-666x-4-4-44444-444x-| [x6]

CHORUS: "Don't tell me lies!"
e|---------------------------------------------------|
B|---------------------------------------------------|
G|-8--8----------------------------------------------|
D|-8--8-----11-11-11--11--xx-9--9--x9/11--xx9/11--99-|
A|-6--6--xx-11-11-11--11--xx-9--9--x9/11--xx9/11--99-|
E|-------xx-9--9--9---9---xx-7--7--x7/9---xx7/9---77-| [x3]

e|--------------------------------------------------------------------|
B|--------------------------------------------------------------------|
G|-8--8----------------------8-8-8-8-8-8-8-8--10-10-10-10-10-10-10----|
D|-8--8-----11-11-11--11--xx-9-9-9-9-9-9-9-9--11-11-11-11-11-11-11-xx-|
A|-6--6--xx-11-11-11--11--xx-9-9-9-9-9-9-9-9--11-11-11-11-11-11-11-xx-|
E|-------xx-9--9--9---9---xx-7-7-7-7-7-7-7-7--9--9--9--9--9--9--9--xx-|

VERSE:
e|-------------------------------|
B|-------------------------------|
G|-7-7-77-77-7777-5-5-55-55-5555-|
D|-8-8-88-88-8888-6-6-66-66-6666-|
A|-8-8-88-88-8888-6-6-66-66-6666-|
E|-6-6-66-66-6666-4-4-44-44-4444-| [x8]

Repeat CHORUS

BRIDGE:
e|----------------|      |-------|
B|----------------|      |-------|
G|-7-7-77-x7-7777-|      |-------|
D|-8-8-88-x6-6666-|      |-8--\\-|
A|-8-8-88-x6-6666-|      |-8--\\-|
E|-6-6-66-x4-4444-| [x8] |-6--\\-|

ENDING/CODA:
  Guitar 1
e|---------------------|      |---------------------|--------------------|
B|---------------------|      |---------------------|--------------------|
G|---------------------|      |---------------------|--------------------|
D|-8888888-x-6666666-x-|      |-8-8888-xx-6-6666-xx-|-8-8-8-xx-666666-xx-|
A|-8888888-x-6666666-x-|      |-8-8888-xx-6-6666-xx-|-8-8-8-xx-666666-xx-|
E|-6666666-x-4444444-x-| [x2] |-6-6666-xx-4-4444-xx-|-6-6-6-xx-444444-xx-|

e|--------------------|      |-------|
B|--------------------|      |-------|
G|--------------------|      |-7-----|
D|-8-8-8-xx-666666-xx-|      |-8-----|
A|-8-8-8-xx-666666-xx-|      |-8-----|
E|-6-6-6-xx-444444-xx-| [x8] |-6-----|

  Guitar 2
e|-------------------|
B|-------------------|
G|-7-7-7-7x-5-5-5-5x-|
D|-8-8-8-8x-6-6-6-6x-|
A|-8-8-8-8x-6-6-6-6x-|
E|-6-6-6-6x-4-4-4-4x-| [x4]

e|---------------------|      |-------|
B|---------------------|      |-------|
G|-777777-xx-555555-xx-|      |-7-----|
D|-888888-xx-666666-xx-|      |-8-----|
A|-888888-xx-666666-xx-|      |-8-----|
E|-666666-xx-444444-xx-| [x8] |-6-----|

End. Please rate! :D
Добавлено: 27.07.2015
Другие материалы по этой песне:
  • Аккорды и текст

Страница создана 27.07.2015
http://primanota.ru/mourn/boys-are-cunts-chords.htm
Привет, Гость.
Предлагаем пройти революционный курс по гитаре.
Подарок от PrimaNota.Ru, забирай!