PrimaNota.ru - самый крупный в мире бесплатный архив песенных текстов, аккордов, табулатур и нот


Mountains of the Moon - How I Leapt From The Stratosphere - аккорды и текст, видео

Регистрация Запомнить меня
Войти через:  Facebook Google Twitter Vk Yandex Mail.ru

Mountains of the Moon - How I Leapt From The Stratosphere - аккорды и текст, видео

Печатать
Просмотров: 21
Уроки эстрадного вокала в Санкт-Петербурге
How I Leapt From The Stratosphere
Mountains of the Moon
-------------------------------------------------------------------------------
         Mountains of the Moon - How I Leapt From The Stratosphere
-------------------------------------------------------------------------------
Tabbed by: Stefan Premovic

Tuning: Standard, Capo on 6th fret


[Chords] 

C  - x32010
Em - 022000
D  - x54030 (actually Dadd4(add9), but let's call it D) 

   ^ v ^ v   v   v   OR ^ v ^ v   v   v    
e|(0-0-0)--------0---||(0-0-0)--------0---|
B|(0-0-0)--------1---||(0-0-0)--------1---|
G|-0-0-0-0---0---0---||-0-0-0-0---0---0---| Riff I
D|-5-5-5-5p4-4\2-2---||-5-5-5-5\4-4\2-2---|
A|-5-5-5-5---5\3-3---||-7-7-7-7\5-5\3-3---|
E|-------------------||-------------------|
   
e|-------------0---|
B|-------------3---|
G|-2-2-2-2-2-2-0---| Riff II
D|-0-0-0-0-0-0-4---|
A|-0-0-0-0-0-0-5---|
E|-----------------|


[Intro]

   v   v ^ v ^ v ^
e|-----X-x-x-x-X-x---|
B|-----X-x-x-x-X-x---|
G|-----X-x-x-x-X-x---| x4
D|-----X-x-x-x-X-x---|
A|-X-----------------|
E|-X-----------------|

C C Em D
C C Em D


[Verse 1]

   C
   Mmm I don't know
                          Em                   D
   How long I can keep ignoring this volcano choir
              C
   Inside my soul
                Em    D
   No I don't know


[Verse 2]

             C
   Like the sun will shy away before the night
             Em                 D
   I'm held back by my fear of heights
               C
   But I will jump
                Em    D
   Yeah I will jump


[Chorus 1]

C           Em                Riff I
   Like the islands in the sea
C           Em              Riff I
   We are united in the deep
C         D    Em               D
   And in the highland of our dreams
                  C        Em
   It's you and me
D                 C        Em    D
   It's you and me


[Verse 3]

   C
   Mmm I didn't know
                            Em                          D
   I was searching for the light but I was putting out fires
                C
   And digging moats
              Em    D
   I didn't know


[Verse 4]

           C
   But now I have learnt to travel with the wind
                        Em                 D
   And you have got my body in a violent spin
                   C 
   I'm out of control
                  Riff II
   And I feel at home


[Chorus 2]

C           Em                Riff I
   Like the islands in the sea
C           Em              Riff I
   We are united in the deep
C         D    Em               D
   And in the highland of our dreams
                  C        Em
   It's you and me
D                 C        Em
   It's you and me
D                 C        Em
   It's you and me
D                 C        Em
   It's you and me


[Outro]

 | p.m. --                   --| v |-- p.m.                      --|
e|-------------------------------0---------------------------------|
B|-------------------------------1---------------------------------|
G|-0-0-0-0-0-0-0-0-0-0-0-0-0-0-0-0---------------0---0---0-0-0-0-0-|
D|-2-2-2-2-2-2-2-2-2-2-2-2-2-2-2-2-2-2-2-2-2-2-2-5-x-4-x-5-5-5-4-4-|
A|-3-3-3-3-3-3-3-3-3-3-3-3-3-3-3-3-2-2-2-2-2-2-2-5-5-5-5-5-5-5-5-5-|
E|---------------------------------0-0-0-0-0-0-0-------------------|
                                                       
 | p.m. --                                   --| v v v v v v v v v^
e|-----------------------------------------------0---0---0-0-0-0-00|
B|-----------------------------------------------0---0---0-0-0-0-00|
G|-0-0-0-0-0-0-0-0-0-0-0-0-0-0-0-0---------------0---0---0-0-0-0-00|
D|-2-2-2-2-2-2-2-2-2-2-2-2-2-2-2-2-2-2-2-2-2-2-2-5-x-4-x-5-5-5-4-44|
A|-3-3-3-3-3-3-3-3-3-3-3-3-3-3-3-3-2-2-2-2-2-2-2-5-5-5-5-5-5-5-5-55|
E|---------------------------------0-0-0-0-0-0-0-------------------|

                                                       It's you and me

   v v v v v v v v v v v v v v v v^v ...
e|-0-------------0---------------000-------------0---0---0-0-0-0-00|
B|-1-------------1---------------110-------------0---0---0-0-0-0-00|
G|-0-0-0-0-0-0-0-0-0-0-0-0-0-0-0-000-------------0---0---0-0-0-0-00|
D|-2-2-2-2-2-2-2-2-2-2-2-2-2-2-2-222-2-2-2-2-2-2-5-x-4-x-5-x-4-4-44|
A|-3-3-3-3-3-3-3-3-3-3-3-3-3-3-3-332-2-2-2-2-2-2-5-5-5-5-5-5-5-5-55|
E|---------------------------------0-0-0-0-0-0-0-------------------|

                                                       It's you and me

e|-0-------------0-------------0-000-------------0---0---0-0-0-0-00|
B|-1-------------1-------------1-110-------------0---0---0-0-0-0-00|
G|-0-0-0-0-0-0-0-0-0-0-0-0-0-0-0-000-------------0---0---0-0-0-0-00|
D|-2-2-2-2-2-2-2-2-2-2-2-2-2-2-2-222-2-2-2-2-2-2-5-x-4-x-5-x-4-4-44|
A|-3-3-3-3-3-3-3-3-3-3-3-3-3-3-3-332-2-2-2-2-2-2-5-5-5-5-5-5-5-5-55|
E|---------------------------------0-0-0-0-0-0-0-------------------|

                                                       It's you and me

e|-0-------0-0-0-0---------0---0-000-------0-0-0-0-0-0-0-0-0-0-0-00|
B|-1-------1-1-1-1---------1---1-110-------0-0-0-0-0-0-0-0-0-0-0-00|
G|-0-0-0-0-0-0-0-0-0-0-0-0-0-0-0-000-------0-0-0-0-0-0-0-0-0-0-0-00|
D|-2-2-2-2-2-2-2-2-2-2-2-2-2-2-2-222-2-2-2-2-2-2-5-x-4-x-5-x-4-4-44|
A|-3-3-3-3-3-3-3-3-3-3-3-3-3-3-3-332-2-2-2-2-2-2-5-5-5-5-5-5-5-5-55|
E|---------------------------------0-0-0-0-0-0-0-------------------|

                                                       It's you and me

e|-0-------------0-------0---0-0-000-----0-0---0-0-0-0-0-0-0-0-0-00|
B|-1-------------1-------1---1-1-110-----0-0---0-0-0-0-0-0-0-0-0-00|
G|-0-0-0-0-0-0-0-0-0-0-0-0-0-0-0-000-----0-0---0-0-0-0-0-0-0-0-0-00|
D|-2-2-2-2-2-2-2-2-2-2-2-2-2-2-2-222-2-2-2-2-2-2-5-x-4-x-5-x-4-4-44|
A|-3-3-3-3-3-3-3-3-3-3-3-3-3-3-3-332-2-2-2-2-2-2-5-5-5-5-5-5-5-5-55|
E|---------------------------------0-0-0-0-0-0-0-------------------|

                                                       It's you and me

e|-0-----0-0---0-0---0-0-0-0-0-0-000-----0-0---0-0---0---0-0-0-0-00|
B|-1-----1-1---1-1---1-1-1-1-1-1-110-----0-0---0-0---0---0-0-0-0-00|
G|-0-0-0-0-0-0-0-0-0-0-0-0-0-0-0-000-----0-0---0-0---0---0-0-0-0-00|
D|-2-2-2-2-2-2-2-2-2-2-2-2-2-2-2-222-2-2-2-2-2-2-5-x-4-x-5-x-4-4-44|
A|-3-3-3-3-3-3-3-3-3-3-3-3-3-3-3-332-2-2-2-2-2-2-5-5-5-5-5-5-5-5-55|
E|---------------------------------0-0-0-0-0-0-0-------------------|

                                                       It's you and me

e|-0-------0---0-0-----0---0-0---0-0---0-0-0-0-0-0-0-0-0-0-0-0-0-0-|
B|-1-------1---1-1-----1---1-1---1-0---0-0-0-0-0-0-0-0-0-0-0-0-0-0-|
G|-0-0-0-0-0-0-0-0-0-0-0-0-0-0-0-0-0---0-0-0-0-0-0-0-0-0-0-0-0-0-0-|
D|-2-2-2-2-2-2-2-2-2-2-2-2-2-2-2-2-2-2-2-2-2-2-2-5-x-4-x-5-x-4-4-4-|
A|-3-3-3-3-3-3-3-3-3-3-3-3-3-3-3-3-2-2-2-2-2-2-2-5-5-5-5-5-5-5-5-5-|
E|---------------------------------0-0-0-0-0-0-0-------------------|

                                                       It's you and me
   v     v^v     v^v     v^v  v  v v 
e|-0-----000-----000-----000--0--0-0-----000-----000-----000--0--0-|
B|-1-----111-----111-----113--3--3-1-----111-----111-----113--3--3-|
G|-0-----000-----000-----000--0--0-0-----000-----000-----000--0--0-|
D|-2-----222-----222-----224--4--4-2-----222-----222-----224--5--4-|
A|-3-----333-----333-----335--5--5-3-----333-----333-----335--5--5-|
E|-----------------------------------------------------------------|

e|-0--0--0-0-----000-----000--0--0-0-------------------------------|
B|-3--3--3-1-----111-----113--3--3-1-------------------------------|
G|-0--0--0-0-----000-----000--0--0-0-------------------------------|
D|-4--5--4-2-----222-----224--4--4-2-------------------------------|
A|-5--5--5-3-----333-----335--5--5-3-------------------------------|
E|-----------------------------------------------------------------|

************************************

| /      slide up
| \      slide down
| h      hammer-on
| p      pull-off
| x      mute note
| p.m.   palm mute
| v      strum down
| ^      strum up

************************************
Добавлено: 19.10.2017
Другие материалы по этой песне:
  • Аккорды и текст

Страница создана 19.10.2017
http://primanota.ru/mountains-of-moon/how-i-leapt-from-stratosphere-chords.htm
Привет, Гость.
Предлагаем пройти революционный курс по гитаре.
Подарок от PrimaNota.Ru, забирай!