PrimaNota.ru - самый крупный в мире бесплатный архив песенных текстов, аккордов, табулатур и нот


Mountain - Kings Chorale - таба, видео

Регистрация Запомнить меня
Войти через:  Facebook Google Twitter Vk Yandex Mail.ru

Mountain - Kings Chorale - таба, видео

Печатать
Просмотров: 124
-------------------------------------------------------------------------------
                           KING'S CHORALE – Mountain
                       (Felix Pappalardi & Gail Collins)
                           [Flowers of Evil (1971)]
-------------------------------------------------------------------------------

Tabbed by: varannion
E-mail:    dm_hughes1@hotmail.com


Key:    Cm
Tuning: standard
                                        Cm              F

|------------------------------------|-----------------------------------------|
|------------------------------------|-----------------------------------------|
|------------------------------------|--5---------------10---------------------|
|------------------------------------|--5---------------10---------------------|
|------------------------------------|--3---------------8----------------------|
|------------------------------------|-----------------------------------------|
|
|------------------------------------|-----------------------------------------|
|------------------------------------|----------8--11---10----------10--8------|
|--------------------------------7---|--8---10----------10--10-------------10--|
|---------------------------10-------|--10--------------10------10-------------|
|----------------------10------------|------------------8----------------------|
|------------------------------------|--8--------------------------------------|


   Eb                   Cm
   let ring
|------------------------------------------|------------------------------|
|--------------------11b13r11p8------------|------------------------------|
|--10p8-------------------------10p8p7-----|------------------------------|
|--8-----8-----------------------------10--|--(10)------------------------|
|--6-----6---------------------------------|------------------------------|
|------------------------------------------|------------------------------|
|
|--6--------------------8-----------------|-------------------------------|
|--8--------10--8-------8------8----------|------------------------8--11--|
|--8--8------------10---8------8--10--8---|--------------7--8--10---------|
|--8-----8--------------10--------12--10--|----------10-------------------|
|--6--------------------------------------|------10-----------------------|
|---------------------------8-------------|---8---------------------------|


   F                       Eb                   Cm
                                                                          ~~~~~~~~
|--------------------------------------------|--------------------------------------|
|--------------------------------------------|--11b13-11b13-11p8--------------------|
|--10----------------------8-----------------|----------------------8h10b12---(12)--|
|--10----------------------8-----------------|-------------------10-----------------|
|--8-----------------------6-----------------|--------------------------------------|
|--------------------------------------------|--------------------------------------|
|
|--------------------------6-----------------|--8-----------------------------------|
|--10----------10--8-------8--------8--6-----|--8-----------8-----------------------|
|--10--10-------------10---8--8-----------8--|--8-----------8-10-8---------------8--|
|--10------10--------------8-----8-----------|--10------------12-10--------10-------|
|--8-----------------------6-----------------|--------------------------------------|
|--------------------------------------------|--------8---------------8-------------|


   Eb                Bb                 E             B
                                       let ring
|------------------------------------|----------------7---9---11------|
|------------------------------------|--------------------------------|
|--8-----------------3---------------|------9---------8---9---11------|
|--8-----------------3---------------|----9---------------------------|
|--6-----------------1---------------|--7-----------------------------|
|------------------------------------|--------------------------------|
|
|------------------------------------|--------------------------------|
|--8--------8--------3------3--1-----|----------------4-------4-------|
|--8--------8--------3------------3--|--1-------1-----4-------4-------|
|--8---8----8---8----3---3-----------|--2-------2-----4---4---4---4---|
|--6--------6--------1---------------|--2---2---------2-------2-------|
|------------------------------------|--0-----------------------------|


                                        Eb              Bb
                                       let ring        let ring
|------(11)--------------------------|----------------------------------|
|------------------------------------|----------------------------------|
|------(11)--------------------------|------8---------------3-----------|
|------------------------------------|----8---------------3-------------|
|------------------------------------|--6---------------1---------------|
|------------------------------------|----------------------------------|
|
|------------------------------------|----------------------------------|
|------4-------4---------------------|--8-------8-------3------3--1-----|
|------4-------4---------------------|--8-------8-------3------------3--|
|------4---4-------4-----------------|--8---8---8---8---3---3-----------|
|------2-----------------------------|--6-------6-------1---------------|
|------------------------------------|----------------------------------|


   E               B                 G
  let ring        let ring
|---------------------------------|--3---4/7-7-------------------------|
|---------------------------------|------------------------------------|
|------9---------------4----------|--4---5/7-7-------------------------|
|----9---------------4------------|------------------------------------|
|--7---------------2--------------|------------------------------------|
|---------------------------------|------------------------------------|
|
|---------------------------------|------------------------------------|
|------------------4-------4------|--0---1---3---(3)----------------3--|
|--1-------1-------4-------4------|--0---2---4---(4)------------5------|
|--2-------2-------4---4---4---4--|--0-------5---(5)--------5----------|
|--2---2-------2---2-------2------|------------------------------------|
|--0------------------------------|--3-------3---(3)-------------------|


   Cm              F                         Eb                 Cm
                                            let ring
|-----------------------------------------|---------------------------------------|
|-----------------------------------------|---------------------4-----------------|
|--5---------------10---------------------|--10p6---------------5-----------------|
|--5---------------10---------------------|--8-----8------------5-----------------|
|--3---------------8----------------------|--6-----6------------3-----------------|
|-----------------------------------------|---------------------------------------|
|
|-----------------------------------------|--6------------------8-----------------|
|----------8--11---10----------10--8------|--8--------8--6------8------8----------|
|--8---10----------10--10-------------10--|--8--8-----------8---8------8--10--8---|
|--10--------------10------10-------------|--8-----8------------10--------12--10--|
|------------------8----------------------|--6------------------------------------|
|--8--------------------------------------|-------------------------8-------------|


  Ab               Fm                   C
                                        ~~~~~~~~~~~~~~~~~~~~~~~~
|------------------1-----------------|------------------------------------|
|------------------1-----------------|------------------------------------|
|--5---------------1-----------------|--12--------------------------------|
|--6---------------3-----------------|------------------------------------|
|--6---------------3-----------------|------------------------------------|
|--4---------------1-----------------|------------------------------------|
|
|------------------------------------|------------------------------------|
|--------4---------------1--------1--|--1---------------------------------|
|-----5--5--7--5------1--1--3--1-----|--0---------------------------------|
|--6--------8--6---3--------5--3-----|--2---------------------------------|
|------------------------------------|--3---------------------------------|
|--4---------------4-----------------|------------------------------------|



   ~~~~~~~~~~~~~~~~~~~~~~~~
|------------------------------------|
|--13--------------------------------|
|------------------------------------|
|------------------------------------|
|------------------------------------|
|------------------------------------|
|
|------------------------------------|
|--(1)-------------------------------|
|--(0)-------------------------------|
|--(2)-------------------------------|
|--(3)-------------------------------|
|------------------------------------|



| /  slide up
| \  slide down
| b  bend up
| r  release bend
| h  hammer-on
| p  pull-off
| ~  vibrato



Chords

Cm     Cm(2)  F     Eb     Bb     E     B     G     G(2)     Ab     Fm     C   

8      3      8     6      1      0     2     3      3       4      1      0 
8      4      10    8      3      0     4     0      3       4      1      1
8      5      10    8      3      1     4     0      4       5      1      0
10     5      10    8      3      2     4     0      5       6      3      2
10     3      8     6      1      2     2     2      5       6      3      3
8      x      x     x      x      0     x     3      3       4      1      x



===================================================================  11 February 2010
Добавлено: 09.04.2012
Другие материалы по этой песне:
  • Аккорды и текст

Страница создана 09.04.2012
http://primanota.ru/mountain/kings-chorale-chords.htm
Привет, Гость.
Предлагаем пройти революционный курс по гитаре.
Подарок от PrimaNota.Ru, забирай!