PrimaNota.ru - самый крупный в мире бесплатный архив песенных текстов, аккордов, табулатур и нот


Mountain Men - I Make You Lose - таба, видео

Регистрация Запомнить меня
Войти через:  Facebook Google Twitter Vk Yandex Mail.ru

Mountain Men - I Make You Lose - таба, видео

Печатать
Просмотров: 90
Уроки эстрадного вокала в Санкт-Петербурге
I MAKE YOU LOSE
MOUNTAIN MEN
SPRING TIME COMING
------------------
(Tabbed by Albane)
------------------

Standard Tuning
// CAPO IV \\

------------
INTRODUCTION

|-----0------------------------------3-0-----0-----0-----|
|-0---------0h1-0-----0----0-0h1-----1---1h3---0---------|
|-0-------0-0---|---0----0---|---2---2---------|-------0-|
|-2-2---2---|---|-0-----0----|----2--2---------|-2---2---|
|-2---------|---|------------0-----------------|---------|
|-0---------0---3------------------------------0---------|

|-----0-----------------------------3-0h3p0-----0----0---v0-|
|-0---------0h1-0-----0----0-0h1----1-------1h3---0--0---v0-|
|-0-------0-0---|---0----0---|---2--2-------------0--0---v0-|
|-|-2---2---|---|-0-----0----|----2-2-------------4--4---v4-|
|-|---------|---|------------0--------------------2--2---v2-|
|-0---------0---3---------------------------------0--0---v0-|

|-----------------------------------------------------------------|
|---------------------------------0---------------0---------------|
|---------------------------------|---------------|---------------|
|---2---2---2---2---2---2---2---2-|-2---2---2---0-|-0---0---0---0-|
|---------------------------------|---------------|---------------|
|-0---0---0---0---0---0---0---0---0---0---0---0---3---3---3---3---|

|-------------------------------3b-0---------------------------------|
|-0---------------0---------0---|----0---------------0---------------|
|-|---------------|-------------|----|---------------|---------------|
|-|-2---2---2---2-|-2---2-----2-|----|-2---2---2---0-|-0---0---0---0-|
|-0---0---0---0---|-------------|----|---------------|---------------|
|-----------------0---0---0-----0----0---0---0---0---3---3---3---3---|

|-------------------0---------------|
|-0---------------0-----0---3-1-0---|
|-|---------------|---------|-|-|-0-|
|-|-2---2---2---2-|-------2-|-2-|-2-|
|-0---0---0---0---|---------|---|---|
|-----------------0---0-----0---0---|

------
RIFF A
|---0-------------------------------0---0-------3-2-0-----0---------------|
|---|---0---3-1-0-----0---0---3-1-0-|-1-|---1---|-|-|-1-0-|---0---3-1-0---|
|---|-------|-|-|-0---|-------|-|-|-|-|-|-------|-|-|-|-|-|-------|-|-|-0-| x2
|-2-2-----2-|-2-|-0---0-----0-|-0-|-0-|-2-----2-|-2-|-2-|-2-----2-|-2-|-2-|
|-|---------|---|-------------|---|---0---0-----0---0---|---------|---|---|
|-0---0-----0---0---3---3-----3---3---------------------0---0-----0---0---|

---------------
COUPLET / VERSE
|---4-----------4---------3-----------3-----------4---------|
|---|---3-------|---3-----|---2-------|---2-------|---3-----|
|-4-|-------4---|-------3-|-------3---|-------3-4-|-------4-|
|-|-2-----2-----2-----2-|-2-----2-----2-----2---|-2-----2---|
|-|---------------------|-----------------------|-----------|
|-0---0-------0---0-----0---0-------0---0-------0---0-------|

|----------------------------4-----------4---------3-----------|
|----------------------------|---3-------|---3-----|---2-------|
|--------------------------4-|-------4---|-------3-|-------3---|
|---2---2---2---2---2---2--|-2-----2-----2-----2-|-2-----2-----|
|--------------------------|---------------------|-------------|
|-0---0---0---0---0---0----0---0-------0---0-----0---0-------0-|

|-3---------4---------------------------v0-|
|-|---2-----|---3-----------------------v0-|
|-|-------4-|-------4-------------------vx-|
|-2-----2-|-2-----2-----2---2---2---2---vx-|
|---------|---------------------------x-vx-|
|---0-----0---0-------0---0---0---0---0----|

------
RIFF B
|---------0-------3---0---------0-------3---0-------|
|-------2-|---2---|-------2---2-|---2---|-------0---|
|-------|-|-------|-----------|-|-------|-----------|
|-------|-2-----2-|-2---------|-2-----2-|-2-------0-|
|-------0---0-----0-----0---0-1---1-----1-----1-----|
|-2-3-4---------------------------------------------|


|-------0-------------------------0---------|
|-----------3---2---0---0-------------2---3-|
|-0h1-----------|-----------0h1-----------|-|
|-|---2-------2-|-2-------2-|---2-------2-|-|
|-|-------------|-----------|-------------|-|
|-0-------0-----0-----0-----0-------0-----0-|

------

RIFF B

RIFF A

COUPLET / VERSE

RIFF B

------

BREAK
|-vx-x-0--vx-0----|
|-vx-x-0--vx-0----|
|-vx-x-0--vx-0--4-|
|-vx-x-2--vx-2--2-|
|-vx-x-2--vx-2--2-|
|-vx-x-0--vx-0--4-|

------

RIFF B

RIFF A

------

 Em    E   Es4  F#m  B7  A  G  ? Em    E   Es4  F#m  B7  A  Em
|---------------------------3--3-------------------------------|
|----------------2--2-0--2--3--3-----------------2--2-0--2-----|
|-0--0-4--4-2--2-2--2-2--2--0--2--0--0-4--4-2--2-2--2-2--2---0-|
|-2--2-2--2-2--2-4--4-1--2--0--0--2--2-2--2-2--2-4--4-1--2---2-|
|-2--2-2--2-0--0-4--4-2--0--2--0--2--2-2--2-0--0-4--4-2--0---2-|
|-0--0-4--4-0--0------------3--2--0--0-4--4-0--0-------------0-|

|-----------0-----------0-----------0-------3b---0-------|
|---------------2---3-------0---2-------2---|--------2---|
|-----0h1-----------|-----------|-----------|------------|
|-----|---2-------2-|-2-------0-|-2-------2-|--2-------2-|
|-----|-------------|-----------0-----0-----0------0-----|
|-12\-0-------0-----0-----0------------------------------|

|-------0-----------0-------------0------------0-------|
|-----------0-----------0--------------0-----------0---|
|-0h1-----------2------------0h1-----------2-----------|
|-|---2-------2-|-1-------1--|---2-------2-|-1-------1-|
|-|-------------2-----2------|-------------2-----2-----|
|-0-------0------------------0-------0-----------------|

|-------0-----------------------------0-------3b---0-------|
|---------------------------------2-------2---|--------2---|
|-0h1---------2-------3-------4---|-----------|------------|
|-|---2---3/4---4_4/5---5_5/6---6-|-2-------2-|--2-------2-|
|-|-------|-------|-------|-------0-----0-----0------0-----|
|-0-------0-------0-------0--------------------------------|

|-------0-----------0-------------0------------0-------|
|-----------0-----------0--------------0-----------0---|
|-0h1-----------2------------0h1-----------2-----------|
|-|---2-------2-|-1-------1--|---2-------2-|-1-------1-|
|-|-------------2-----2------|-------------2-----2-----|
|-0-------0------------------0-------0-----------------|

 Em  A7  Em  B7  Em     B7
|-0---0---0--2--2-0---3-2-|
|-0---2---0--0--0-0---0-0-|
|-0---0---0--2--2-0---3-2-| } x3
|-2---2---2--1--1-2---2-1-|
|-2---0---2--2--2-2---3-2-|
|-0---0---0--0--0-0---0-0-|

|-0---0---0--2--2-0-0-0--2-2-2-|
|-0---2---0--0--0-0-0-0--0-0-0-|
|-0---0---0--2--2-0-0-0--2-2-2-|
|-2---2---2--1--1-2-2-2--1-1-1-|
|-2---0---2--2--2-2-2-2--2-2-2-|
|-0---0---0--0--0-0-0-0--0-0-0-|

|-----------------------------------------------------------------|
|-----------------------------------------------------------------|
|-----------------------------------------------------------------| } x2
|---2---2---2---0---0---0---0---0---2---2---2---0---2---2---2---2-|
|---------------------------------0---0---0---0-------------------|
|-0---0---0---0---3---3---3---3-------------------0---0---0---0---|

|-------------------------------------------------|
|-0---------------0---------------0---------------|
|-|---------------|---------------|---------------|
|-|-2---2---2---0-|-0---0---0---0-|-2---2---2---0-|
|-|---------------|---------------0---0---0---0---|
|-0---0---0---0---3---3---3---3-------------------|

|--------------------------------------------------------------------|
|-0-----------------0---0-----------------0---0-----------------0----|
|-|-------------0-------|-------------0-------|-------------0--------|
|-|-2---2---2---2-----2-|-2---2---2---2-----0-|-0---0---0---0------0-|
|-|---------------------|---------------------|----------------------|
|-0---0---0---0---0-----0---0---0---0---0-----3---3---3---3---3------|

|-----------------------------------------------|
|-0---------------0-----------------------------|
|-|--------(2)----|-------------------0--0-4--4-|
|-|-2---2---2---0-|-2---2---2---------2--2-2--2-|
|-0---0---0---0---|-------------------2--2-2--2-|
|-----------------0---0---0---0-2-3-4-0--0-4--4-|

------

RIFF B

BREAK

RIFF A

------

OUTRO
|---0---------------|                               |-0-|
|---|---0---3-1-0---|                               |-0-|
|---|-------|-|-|-0-| } x7  EN RALENTISSANT         |-0-|
|-2-2-----2-|-2-|-2-|        / SLOW DOWN            |-4-|
|-|---------|---|---|                               |-2-|
|-0---0-----0---0---|                 PUIS / THEN : |-0-|


-----------------
A vous de jouer !

Version originale live : 
https://www.youtube.com/watch?v=xngiinSYKJ4

Reprise instrumentale :
http://www.youtube.com/watch?v=_v4Q9Td4Zo4

---------------------
b = bend
h = hammer on
p = pull of
/ = slide
~ = vibrato
M = coup vers le bas
V = coup vers le haut
Добавлено: 18.08.2013
Вам также может быть интересно:
Другие материалы по этой песне:
  • Аккорды и текст

Страница создана 18.08.2013
http://primanota.ru/mountain-men/i-make-you-lose-chords.htm
Привет, Гость.
Предлагаем пройти революционный курс по гитаре.
Подарок от PrimaNota.Ru, забирай!