PrimaNota.ru - самый крупный в мире бесплатный архив песенных текстов, аккордов, табулатур и нот


Mountain Men - Egotistical - таба, видео

Регистрация Запомнить меня
Войти через:  Facebook Google Twitter Vk Yandex Mail.ru

Mountain Men - Egotistical - таба, видео

Печатать
Просмотров: 107
EGOTISTICAL
MOUNTAIN MEN
HOPE (2012)

------------------------------------------------------------
Mountain Men est un groupe franco-australien extraordinaire.
Mr Mat : Guitare et chant
Barefoot Iano : Harmonica

http://mountain-men.fr/
https://www.facebook.com/mountain.men.officiel
----------------------------------------------

Standard Tuning
// CAPO V \\

Accords utilisés (noms approximatifs) :
Chords used (approximate names) :

                                  2   3   4       3   4   5
|---|---|---|   |---|---|---|   |---|---|---|   |---|---|---|
|---|---|-3-|   |---|---|---|   |---|---|---|   |---|---|---|
|---|-2-|---|   |---|---|---|   |---|---|-4-|   |---|---|-4-|
|---|---|---|   |---|-3-|---|   |---|---|-3-|   |---|---|-3-|
|---|---|---|   |---|-2-|---|   |-1-|---|---|   |-1-|---|---|
|---|-1-|---|   |---|---|---|   |-1-|---|---|   |-1-|---|---|
    Dadd9            Em               B5   (+ 1c.)    C5

  3   4   5       5   6   7       8   9   10
|---|---|---|   |---|---|---|   |---|---|---|   |---|---|---|
|---|---|---|   |---|---|---|   |---|---|---|   |-1-|---|---|
|---|---|---|   |---|---|---|   |---|---|-4-|   |---|---|---|
|---|---|-4-|   |---|---|-4-|   |---|---|-3-|   |---|-2-|---|
|---|---|-3-|   |---|---|-3-|   |-1-|---|---|   |---|---|-3-|
|-1-|---|---|   |-1-|---|---|   |---|-2-|---|   |---|---|---|
     G5    (+ 2c.)    A5            Emadd9            C

|---|---|-4-|
|---|---|-3-|
|---|---|---|
|---|---|---|
|---|-1-|---|
|---|---|-2-|
      G

--------------
INTRODUCTION :

Dadd9 / Em  } x2

|---0-----2-----0-3-----0-2-----0--------0---2-----0-3-----0-2-----0---|
|-0-|---0-|---0---|---0---|-0h1---1-0h1----1-|---1---|---1---|-0h1---1-|
|-|-|-----|-------|-------|---------|--------|-------|-------|---------|
|-|-2-----|-2-----|-2-----|---------|--------|-0-----|-2-----|---------|
|-2---2---2-------2-------2---------3--------3-------0-------2---------|
|----------------------------------------------------------------------|

|-----0-----2------0-3-----0-2-----0-------0---2-----0-3-----0-2-----0---|
|-0-------0-|----0---|---0---|-0h1---1-0h1---1-|---1---|---1---|-0h1---1-|
|-|---------|--------|-------|---------|-------|-------|-------|---------|
|-|-2---2---|-2------|-2-----|---------|-------|-0-----|-2-----|---------|
|-2---------2--------2-------2---------3-------3-------0-------2---------|
|------------------------------------------------------------------------|


-----------------
COUPLET / VERSE :

|-----------------------------------------------------------0---2-----2-|
|-0---------0---3-1-0---------0---3-1-0---------0---3-1-1-----0-|---0---|
|-|-------------|-|-|-------------|-|-|-------------|-|-|-------|-------| x2
|-|-2---2-----2-|-2-|-2---2-----2-|-2-|-------------|-|-|-------|-2-----|
|-|-------------|---|-------------|---|-3---3-----3-|-3-|-3-----3-------|
|-0---0---0-----0---0---0---0-----0---0---0---0-----0---0---------------|


|-----0-------0-------0-------0---|
|---0---0---0---0---0---0---1---1-|
|-4-------------------------------|
|---------------------------------|
|-2-------0-------2-------3-------|
|---------------------------------|

------------------
REFRAIN / CHORUS :

Em / B5 / C5 / G5 / A5
Em / B5 / C5 / A5 / B5

Rythmique / Rhythm :
M MV VMVM M MV VMV x

---------------

COUPLET / VERSE

REFRAIN / CHORUS

---------------
PONT / BRIDGE :

|-----3-----------3-----------5-----------5-------|
|-5-------5---5-------5---7-------7---7-------7---|
|-|-----------|-----------|-----------|-----------| x4
|-|-5-------5-|-5-------5-|-7-------7-|-7-------7-|
|-3-----3-----4-----4-----5-----5-----6-----6-----|
|-------------------------------------------------|


Em / C / G / B5
Emadd9 / A5 / C5 / B5
Em / C / G / B5  } x2

Rythmique / Rhythm :
MM MVMVM MV VMV x

----------------

REFRAIN / CHORUS

-----
OUTRO

        Em
Dadd9 / Em  } x3
Dadd9

|--------------------------|
|--------------------------|
|---------------3-4-6-6/7~-|
|-------1-2-4-5------------|
|---2-3--------------------|
|-0------------------------|


A vous de jouer !
-----------------

Version originale :
http://www.youtube.com/watch?v=hiTl3WyTtKw

---------------------
b = bend
h = hammer on
p = pull of
/ = slide
~ = vibrato
M = coup vers le bas
V = coup vers le haut
Добавлено: 24.08.2013
Другие материалы по этой песне:
  • Аккорды и текст

Страница создана 24.08.2013
http://primanota.ru/mountain-men/egotistical-chords.htm
Привет, Гость.
Предлагаем пройти революционный курс по гитаре.
Подарок от PrimaNota.Ru, забирай!