PrimaNota.ru - самый крупный в мире бесплатный архив песенных текстов, аккордов, табулатур и нот


Motrip - Malcolm Mittendrin - таба, видео

Регистрация Запомнить меня
Войти через:  Facebook Google Twitter Vk Yandex Mail.ru

Motrip - Malcolm Mittendrin - таба, видео

Печатать
Просмотров: 86
-------------------------------------------------------------------------------
                             Malcolm Mittendrin - Motrip
-------------------------------------------------------------------------------

Tuning: E-A-D-G-B-e

Intro

e|-----------3-----------3-----------3--1-------|
B|--------3-----------3-----------3--------4--3-|
G|-----3-----------3-----------3----------------|
D|--------------------------1-------------------|
A|----------------------------------------------|
E|--3-----------1-------------------------------| x4


Verse 1

Fade:

e|------------------------------|
B|------------------------------|
G|------------------------------|
D|---------------------------1~-|
A|------------------------------|
E|--3~-----------1~-------------| x4

e|-----------3-----------3-----------3--1-------|
B|--------3-----------3-----------3--------4--3-|
G|-----3-----------3-----------3----------------|
D|--------------------------1-------------------|
A|----------------------------------------------|
E|--3-----------1-------------------------------| x4

Chorus 1

e|-----------3-----------3-----------3--1-------|
B|--------3-----------3-----------3--------4--3-|
G|-----3-----------3-----------3----------------|
D|--------------------------1-------------------|
A|----------------------------------------------|
E|--3-----------1-------------------------------| x4

Verse 2

e|-----------3-----------3-----------3--1-------|
B|--------3-----------3-----------3--------4--3-|
G|-----3-----------3-----------3----------------|
D|--------------------------1-------------------|
A|----------------------------------------------|
E|--3-----------1-------------------------------| x10

Chorus 2

e|-----------3-----------3-----------3--1-------|
B|--------3-----------3-----------3--------4--3-|
G|-----3-----------3-----------3----------------|
D|--------------------------1-------------------|
A|----------------------------------------------|
E|--3-----------1-------------------------------| x4

Bridge

Fade:

e|------------------------------|
B|------------------------------|
G|------------------------------|
D|---------------------------1~-|
A|------------------------------|
E|--3~-----------1~-------------| x4

Chorus 3

e|-----------3-----------3-----------3--1-------|
B|--------3-----------3-----------3--------4--3-|
G|-----3-----------3-----------3----------------|
D|--------------------------1-------------------|
A|----------------------------------------------|
E|--3-----------1-------------------------------| x4

Outro

e|-----------3-----------3-----------3--1-------|
B|--------3-----------3-----------3--------4--3-|
G|-----3-----------3-----------3----------------|
D|--------------------------1-------------------|
A|----------------------------------------------|
E|--3-----------1-------------------------------| x4
Добавлено: 09.06.2016
Другие материалы по этой песне:
  • Аккорды и текст

Страница создана 09.06.2016
http://primanota.ru/motrip/malcolm-mittendrin-chords.htm
Привет, Гость.
Предлагаем пройти революционный курс по гитаре.
Подарок от PrimaNota.Ru, забирай!