PrimaNota.ru - самый крупный в мире бесплатный архив песенных текстов, аккордов, табулатур и нот


Motorpsycho - S.t.g. - текст песни, таба, видео

Регистрация Запомнить меня
Войти через:  Facebook Google Twitter Vk Yandex Mail.ru

Motorpsycho - S.t.g. - текст песни, таба, видео

Печатать
Просмотров: 96
Motorpsycho - S.T.G.
Blissard (1995)

tuning:
d
A
G
D
G
E

************************************

| /   slide up
| \   slide down
| h   hammer-on
| p   pull-off
| ~   vibrato
| +   harmonic
| x   Mute note
| b   Bend
| pb  Pre-bend
| br  Bend release
| pbr Pre-bend release
| brb Bend release bend

************************************


0:00 guitar right: intro 1:

d|-------------12+-------------------------------|
A|-------------12+-------------------------------|
G|-------------12+-------------------------------|
D|-------------12+-------------------------------|
B|-------12+-------------------------------------|
E|-----------------------------------------------|

0:00 guitar left: intro 2

d|---------------------------------------|
A|---------------------------------0-----|
G|---------------------------------------|
D|---------------------------------------|
B|-------------------0h2h3-2-3p2---------|
E|-0-------------------------------------|

0:29 guitar right: intro 1

0:29 guitar left: intro  3

d|--------------------------|
A|-2------4-------0---------|
G|-4------6-------2---------|
D|-2------4-------0---------|
B|--------------------------|
E|--------------------------|

1:10: guitar left: Variation intro 3

d|---------------(7)--------|
A|-2------4-------5---------|
G|-4------6-------7---------|
D|-2------4-------5---------|
B|--------------------------|
E|--------------------------|

1:24 chorus riff   (4x)

d|---------------------------------------------------------------------------|
A|-9--9--9-9--------------------------------------9--9--9--9--9--9--9--9-----|
G|-11-11-11-11----9-9-9-9------779-7-9--7----9----11-11-11-11-11-11-11-11----|
D|-9--9--9--9-----9-9-9-9------779-7-9--7----9----9--9--9--9--9--9--9--9-----|
B|-----------------------------779-7-9--7----9----9--9--9--9--9--9--9--9-----|
E|---------------------------------------------------------------------------|

1:50 verse riff 1  (2x)

d|------------------------------------------------------|
A|----2---0---------------------2---0-------------------|
G|----4---2-------------0-------4---2-------------0-----|
D|------------------------------------------------------|
B|------------2-3-2-3p2-----------------2-3-2-3p2-------|
E|-0-------------------------0--------------------------|

d|------------------------------------------------------|
A|----2---0---------------------2-4--0------------------|
G|----4---2-------------0-------4-4--2-------------0----|
D|------------------------------------------------------|
B|------------2-3-2-3p2-----------------2-3-2-3p2-------|
E|-3-------------------------3--------------------------|

d|------------------------------------------------------|
A|----2---0---------------------2---0-------------------|
G|----4---2-------------0-------4---2-------------0-----|
D|------------------------------------------------------|
B|------------2-3-2-3p2------0-----------2-3-2-3p2------|
E|-0----------------------------------------------------|

d|------------------------------------------------------|
A|----2---0---------------------2-4--0------------------|
G|----4---2-------------0-------4-4--2-------------0----|
D|------------------------------------------------------|
B|------------2-3-2-3p2-----------------2-3-2-3p2-------|
E|-3-------------------------3--------------------------|


2:17 guitar right: verse riff 2 (chords, without the variations) (2x)


d|----------------------------------|
A|-2-----------4---------7----------|
G|-4-----------4---------7----------|
D|-4-----------4---------7----------|
B|----------------------------------|
E|----------------------------------|


2:17 guitar left: verse riff 3



d|-----------------------------------------------
A|-----------------------------------------------
G|-4-4--/7-7--/9-9-\7-7-\4-4-/7-7-/9-9-/12--12---
D|--2-2---5-5---7-7--5-5--2-2--5-5--7-7---10--10-
B|-----------------------------------------------
E|-----------------------------------------------

d|--------------------------------------------------------------------
A|--------------------------------------------------------------------
G|11-11-/14--14--/16--16--\14--14--\11-11-/14--14--/16--16--\14--14---
D|--9--9---12--12---14--14---12--12---9--9---12--12---14--14---12--12-
B|--------------------------------------------------------------------
E|--------------------------------------------------------------------

d|----------------------------------------------
A|----------------------------------------------
G|4-4--/7-7--/9-9-\7-7-\4-4-/7-7-/9-9-/12--12---
D|-2-2---5-5---7-7--5-5--2-2--5-5--7-7---10--10-
B|----------------------------------------------
E|----------------------------------------------

d|--------------------------------------------------------------------|
A|--------------------------------------------------------------------|
G|11-11-/14--14--/16--16--\14--14--/19--19--19--19---1919191919191919-|
D|--9--9---12--12---14--14---12--12---17--17--17--17-1717171717171717-|
B|--------------------------------------------------------------------|
E|--------------------------------------------------------------------|

2:44 chorus riff (2x)


2:57 guitar right: verse riff 1(2x)

2:57 guitar left:  verse riff 4(2x)


d|------------------------------------------------------------------------------------|
A|------------------------------------------------------------------------------------|
G|-4--4--4--4---4--7777-6--6--6--6---6--9999-7--7--7--7---7--7777-7-7--7--7---7--7777-|
D|-2--2-2-2-2--2-2-5555-4--4-4-4-4--4-4-7777-5--5-5-5-5--5-5-5555-5-5-5-5-5--5-5-5555-|
B|------------------------------------------------------------------------------------|
E|------------------------------------------------------------------------------------|

3:24 guitar right: verse riff 2 (2x)

3:24 guitar left: verse riff 3

3:50 chorus riff 2

4:04 bridge (global chords, without the variations) 


d|(0)--------(4)--------(5)----------|
A|-0----------4----------5-----------|
G|-2----------6----------7-----------|
D|-0----------4----------5-----------|
B|-----------------------------------|
E|-----------------------------------|


d|(0)--------(4)--------(5)---(7)--(9)--(7)---|
A|-0----------4----------5-----7----9----7----|
G|-2----------6----------7-----9----11---9----|
D|-0----------4----------5-----7----9----7----|
B|--------------------------------------------|
E|--------------------------------------------|

4:30 chorus riff           (4x)

4:56 chorus riff variation (2x)

d|------------------------------------|
A|------------------------------------|
G|-11-11--9----7-9-7-9-7---111111-11--|
D|-9--9---9----7-9-7-9-7---9-9-9--9---|
B|------------------------------------|
E|------------------------------------|

5:03 buildup into noise    (4x)


d|------------------------------------|
A|------------------------------------|
G|-11-11-/14--14--/16--16--\14--14--\-|
D|---9--9---12--12---14--14---12--12--|
B|------------------------------------|
E|------------------------------------|


5:20 noise, noise everywhere 

5:50 total fucking noise

6:20 noise cooldown

6:35 12 fret harmonics 

6:48 

d|---------------------------------------------------------------------------------------|
A|---------------------------------------------------------------------------------------|
G|-11-11-/14--14--/16--16--\14--14--\11-11-/14--14--/16--16---19-21-19--18----16h18---18-|
D|---9--9---12--12---14--14---12--12---9--9---12--12---14--14---------------16-----------|
B|---------------------------------------------------------------------------------------|
E|---------------------------------------------------------------------------------------|

7:18 (chords, without the variations)

d|-----------------|
A|-----------------|
G|-9---7---6---4---|
D|-7---5---4---2---|
B|-----------------|
E|-----------------|

7:33

d|---------------------------------------------------------------------------------------|
A|---------------------------------------------------------------------------------------|
G|-11-11-/14--14--/16--16--\14--14--\19--19--19--19--21--21--21--21--21---18----18--18---|
D|---9--9---12--12---14--14---12--12---17--17--17--17--19--19--19--19--19-16--16--16--16-|
B|---------------------------------------------------------------------------------------|
E|---------------------------------------------------------------------------------------|

7:55 

d|---------------------------------------------------------------------------------------|
A|---------------------------------------------------------------------------------------|
G|-11-11-/14--14--/16--16--\14--14--\11-11-/14--14--/16--16---19-21-19--18----16h18---18-|
D|---9--9---12--12---14--14---12--12---9--9---12--12---14--14---------------16-----------|
B|---------------------------------------------------------------------------------------|
E|---------------------------------------------------------------------------------------|

8:10

d|----------------------------------------------------------
A|----------------------------------------------------------
G|-11-11-\9-9-\6-6-/7-7-/11-11-/14--14--/16--16--\14--14--/-
D|---9--9--7-7--4-4--5-5---9--9---12--12---14--14---12--12--
B|----------------------------------------------------------
E|----------------------------------------------------------

d|-------------------------------------------------------------------------|
A|-16--16--16--16--16--/18--18--18--18--/19--19--19--19--/21--21--21--21---|
G|---14--14--14--14--14---16--16--16--16---17--17--17--17---19--19--19--19-|
D|-------------------------------------------------------------------------|
B|-------------------------------------------------------------------------|
E|-------------------------------------------------------------------------|


8:24
  |repeat till 8:51|
d|--------------------------------------|
A|------21--------21------------21------|
G|--------------------------------------|
D|-21-21---21-21-------21-21-21---21-21-|
B|--------------------------------------|
E|--------------------------------------|

8:53
                                                                            |this chord till end|
d|------------------------------------------------------------------------------------------|
A|-6-6-6-6-\4-4-4-4-/6-6-6-6-\4-4-4/-7-\6-6-6-6-6-6-6-6-6-/9-9-9-9-9-9-9-9-\11-11-11-11--11-|
G|--4-4-4-4--2-2-2-2--4-4-4-4--2-2--5-5--4-4-4-4-4-4-4-4-4--7-7-7-7-7-7-7-7---9--9--9--9-9--|
D|------------------------------------------------------------------------------------------|
B|------------------------------------------------------------------------------------------|
E|------------------------------------------------------------------------------------------|
Добавлено: 07.12.2015
Другие материалы по этой песне:
  • Аккорды и текст

Страница создана 21.05.2012
http://primanota.ru/motorpsycho/stg-chords.htm
Привет, Гость.
Предлагаем пройти революционный курс по гитаре.
Подарок от PrimaNota.Ru, забирай!