PrimaNota.ru - самый крупный в мире бесплатный архив песенных текстов, аккордов, табулатур и нот


Motorpsycho - Stained Glass - текст песни, таба, видео

Регистрация Запомнить меня
Войти через:  Facebook Google Twitter Vk Yandex Mail.ru

Motorpsycho - Stained Glass - текст песни, таба, видео

Печатать
Просмотров: 80
-------------------------------------------------------------------------------
                             Stained Glass - Motorpsycho
-------------------------------------------------------------------------------
Tabbed by: Franco Cassinelli
E-mail: franco.cassinelli91@gmail.com

THANKS FOR THE HELP TO MOTORPSYCHO'S UNOFFICIAL WEB SITE Morten Gottschalk
E-mail: m-gotts@frisurf.no

Tuning: EBDGAD
Tempo: ~72 bpm


INTRO AND VERSE:


Guitar 1 & 2
They play this parts all the time through the intro and first verse

                                           *
d|---------------------------|----0---------------------||
A|-----2---------------------|-------0------------------||
G|--------2--1-----2---------|----------1---2--1--------||
D|-----------------2---------|--------------------2-----||
B|-----------------2---------|-----------------------2--||
E|-0-------------------------|-0------------------------||
 |                           |                          ||
 |                           |                          ||
 |                           |                          ||
 |                           |                          ||
 |N.H.--------|              |                          ||
 |                           |                          ||
d|---------------------------|--------------------------||
A|---------------------------|--------------------------||
G|---------------------------|--------------------------||
D|--------5--5---------------|--------------------------||
B|-----5---------------------|--------------------------||
E|-12------------------------|--------------------------||


Guitar 3
enters after 8 bars and continues until the bridge with this part

                *                           
d|----0---------------------|---0--------------------||
A|-------0------------------|------0-----------------||
G|----------1---2--1--------|---------1-----2--------||
D|--------------------2-----|---------------2--------||
B|-----------------------2--|---------------2--------||
E|-0------------------------|0-----------------------||


* this note is actually a quick hammer on from the first fret

|----------------||
|----------------||
|-1h2------------||
|----------------||
|----------------||
|----------------||



BRIDGE

In this part it is quite difficoult to isolate the various
guitar parts. One (probabily a 12 string) simply plays the three chords, while
one of the other two plays it a bit arpeggiating.
Re arranged for one guitar it can be played something like this:


In tune        with   all        I

d|-0-----------------|-0---------0----------|
A|-0-----------------|-0---------0----------|
G|-0-----------------|-5---------7----------|
D|-0-----------------|-0---------0----------|
B|-3-----------------|-6---------8----------|
E|-3-----------------|-6---------8----------|


   am                                            In

d|----0---------------------|---0--------------------|
A|-------0------------------|------0-----------------|
G|----------1---2--1--------|---------1-----2--------|
D|--------------------2-----|---------------2--------|
B|-----------------------2--|---------------2--------|
E|-0------------------------|0-----------------------|


  dreams          I    un-      der-

d|-0-----------------|-0---------0----------|
A|-0-----------------|-0---------0----------|
G|-2-----------------|-5---------7----------|
D|-0-----------------|-0---------0----------|
B|-3-----------------|-6---------8----------|
E|-3-----------------|-6---------8----------|


  -stand

d|-0-----------------|--------------------||
A|-0-----------------|--------------------||
G|-6-----------------|--------------------||
D|-0-----------------|--------------------||
B|-7-----------------|--------------------||
E|-7-----------------|--------------------||
 |                   |                    ||
 |                   |                    ||
 |                   |                    ||
 |                   |                    ||
 |                   |                    ||
d|-------------------|--------------------||
A|-------------------|--------------------||
G|-------------------|---7--6-------------||
D|-------------------|---------7-----7--9-||    <----FRENCH HORN
B|-------------------|------------7-------||
E|-------------------|--------------------||


SOLO (over intro and verse part)

VERSE

BRIDGE

REFRAIN (it is a bit tricky to figure it out, that's the way I play it)

  
   Be       a                  Vi-     rus

d|----2----------------0-----|-0------------------------|
A|-------2----------------0--|-------0--4---------4-----|
G|-1--------2----------------|-2--------2------------2--|
D|-2--------4-------4--------|-4--4-----4------4--------|
B|---------------------------|--------------------------|
E|-0-------------------------|--------------------------|


  steal     your      con-    trol

d|----2----------------0-----|-0---------------------|
A|-------2----------------0--|-0---------------------|
G|-1--------2----------------|-6------6-6h7--6-------|
D|-2--------4-------4--------|-0---------------7-----|
B|---------------------------|-7------------------7--|
E|-0-------------------------|-7---------------------|


 Flow in-  to            your  I-       ris         and

d|----2----------------0-----|-0------------------------|
A|-------2----------------0--|-------0--4---------4-----|
G|-1--------2----------------|-2--------2------------2--|
D|-2--------4-------4--------|-4--4-----4------4--------|
B|---------------------------|--------------------------|
E|-0-------------------------|--------------------------|

  touch     your         Soul

d|-0---------0----------|-0------------------||
A|-0---------0----------|-0------------------||
G|-5---------7----------|-9------------------||
D|-0---------0----------|-0------------------||
B|-6---------8----------|-10-----------------||
E|-6---------8----------|-10-----------------||


Intro riffs with guitar solo




I'll try to tab the solos (at least the first one) soon.

Thank you Morten Gottschalk for the tuning of the song
http://motorpsycho.fix.no/musicbox/guitartab/motortab/stainedglass2.htm)

Hope you enjoy the tab, have fun!



************************************

| /   slide up
| \   slide down
| h   hammer-on
| p   pull-off
| ~   vibrato
| +   harmonic
| x   Mute note
| b   Bend
| pb  Pre-bend
| br  Bend release
| pbr Pre-bend release
| brb Bend release bend

************************************
Добавлено: 07.12.2015
Другие материалы по этой песне:
  • Аккорды и текст

Страница создана 10.07.2012
http://primanota.ru/motorpsycho/stained-glass-chords.htm
Привет, Гость.
Предлагаем пройти революционный курс по гитаре.
Подарок от PrimaNota.Ru, забирай!