PrimaNota.ru - самый крупный в мире бесплатный архив песенных текстов, аккордов, табулатур и нот


Motorpsycho - Hell Part I - Iii - таба, видео

Регистрация Запомнить меня
Войти через:  Facebook Google Twitter Vk Yandex Mail.ru

Motorpsycho - Hell Part I - Iii - таба, видео

Печатать
Просмотров: 66
-------------------------------------------------------------------------------
                             Hell (Part II) - Motorpsycho
-------------------------------------------------------------------------------
Tabbed by: Meuwh
E-mail:

Tuning: Standard E


e|---------------------------------------------------------------------------|
B|---------------------------------------------------------------------------|
G|---------------------------------12~---------------------------------------|
D|-9-9--14p12----14~---9--14p12-----------9-9--14p12----14~--9--14p12--------|
A|-7-7--------14-------7--------14--------7-7--------14------7--------14-10--|
E|-0-0-----------------0------------------0-0----------------0---------------|

e|---------------------------------------------------------------------------|
B|---------------------------------------------------------------------------|
G|---------------------------------12~---------------------------------------|
D|-9-9--14p12----14~---9--14p12-----------9-9--14p12----14~--9--14p12--------|
A|-7-7--------14-------7--------14--------7-7--------14------7--------14-10--|
E|-0-0-----------------0------------------0-0----------------0---------------|

e|---------------------------------------------------------------------------|
B|-12-12h13-15-12~-----------------------------------------------------------|
G|-----------------12~--9-9p7---------9-9h7----------------------------------|
D|----------------------------7-5-9-7-------9-5-9-7--------------------------|
A|---------------------------------------------------------------------------|
E|---------------------------------------------------------------------------|


e|---------------------------------------------------------------------------|
B|---------------------------------------------------------------------------|
G|---------------------------------------------------------------------------|
D|-5-7/9h7----9p7----9p7----9p7-----5----------------------------------------|
A|---------10-----10-----10-----10----7-7------------------------------------|
E|---------------------------------------------------------------------------|


e|---------------------------------------------------------------------------|
B|-12-12h13-15-12~-----------------------------------------------------------|
G|-----------------12~--9-9p7---------9-9h7----------------------------------|
D|----------------------------7-5-9-7-------9-5-9-7--------------------------|
A|---------------------------------------------------------------------------|
E|---------------------------------------------------------------------------|


e|---------------------------------------------------------------------------|
B|---------------------------------------------------------------------------|
G|---------------------------------------------------------------------------|
D|-5-7/9h7----9p7----9p7----9p7-----5-9-9--9-7-------------------------------|
A|---------10-----10-----10-----10----7-7--7-5-------------------------------|
E|------------------------------------0-0--0-0-------------------------------|


Keep on rocking this riff during the verse.
e|------------------------------|--------------------------------------------|
B|------------------------------|--------------------------------------------|
G|------------------------------|--------------------------------------------|
D|-9-9-----------9-9--------7---|--------------------------------------------|
A|-7-7--7h9 9-9--7-7--7h9 9-----|--------------------------------------------|
E|-0-0-----------0-0------------|--------------------------------------------|


or you play this during the verse (volume down, less treble)
e|---------------------------------------------------------------------------|
B|---------------------------------------------------------------------------|
G|---------------------------------12~---------------------------------------|
D|-9-9--14p12----14~---9--14p12-----------9-9--14p12----14~--9--14p12--------|
A|-7-7--------14-------7--------14--------7-7--------14------7--------14-10--|
E|-0-0-----------------0------------------0-0----------------0---------------|


chorus (riff based on ???) 3:53
e|---------------------------------------------------------------------------|
B|---------------------------------------------------------------------------|
G|-------14----12---9--------------------------------------------------------|
D|-12----12----10---7--------------------------------------------------------|
A|-10------------------------------------------------------------------------|
E|---------------------------------------------------------------------------|

Keep on rocking this riff during the verse.
e|------------------------------|--------------------------------------------|
B|------------------------------|--------------------------------------------|
G|------------------------------|--------------------------------------------|
D|-9-9-----------9-9--------7---|--------------------------------------------|
A|-7-7--7h9 9-9--7-7--7h9 9-----|--------------------------------------------|
E|-0-0-----------0-0------------|--------------------------------------------|


or you play this during the verse (volume down, less treble)
e|---------------------------------------------------------------------------|
B|---------------------------------------------------------------------------|
G|---------------------------------12~---------------------------------------|
D|-9-9--14p12----14~---9--14p12-----------9-9--14p12----14~--9--14p12--------|
A|-7-7--------14-------7--------14--------7-7--------14------7--------14-10--|
E|-0-0-----------------0------------------0-0----------------0---------------|


chorus (riff based on ???) 3:53
e|---------------------------------------------------------------------------|
B|---------------------------------------------------------------------------|
G|-------14----12---9--------------------------------------------------------|
D|-12----12----10---7--------------------------------------------------------|
A|-10------------------------------------------------------------------------|
E|---------------------------------------------------------------------------|


4:00                ~ ~ ~
e|---------------------------------------------------------------------------|
B|---------------------------------------------------------------------------|
G|------------------7-7-7--7-6-----------------------------------------------|
D|-----------------------------7---------------------9~----------------------|
A|-7--10p9-7--7-7-------------------7--10p9-7--7-7---7~----------------------|
E|---------------------------------------------------------------------------|

                    ~ ~ ~
e|---------------------------------------------------------------------------|
B|---------------------------------------------------------------------------|
G|------------------7-7-7--7-6-----------------------------------------------|
D|-----------------------------7---------------------9~----------------------|
A|-7--10p9-7--7-7-------------------7--10p9-7--7-7---7~----------------------|
E|---------------------------------------------------------------------------|

                    ~ ~ ~
e|---------------------------------------------------------------------------|
B|---------------------------------------------------------------------------|
G|------------------7-7-7--7-6-----------------------------------------------|
D|-----------------------------7---------------------9~----------------------|
A|-7--10p9-7--7-7-------------------7--10p9-7--7-7---7~----------------------|
E|---------------------------------------------------------------------------|

                    ~ ~ ~
e|---------------------------------------------------------------------------|
B|---------------------------------------------------------------------------|
G|------------------7-7-7--7-6-----------------------------------------------|
D|-----------------------------7---------------------9~----------------------|
A|-7--10p9-7--7-7-------------------7--10p9-7--7-7---7~----------------------|
E|---------------------------------------------------------------------------|


4:30 (crazy shizzle)

e|-12----12--------15-------14----14-----------------------------------------|
B|--13------13--------13-----15------15--------------------------------------|
G|---14--------14-------------16--------16-----------------------------------|
D|---------------------------------------------------------------------------|
A|---------------------------------------------------------------------------|
E|---------------------------------------------------------------------------|

4:38                ~ ~ ~
e|---------------------------------------------------------------------------|
B|---------------------------------------------------------------------------|
G|------------------7-7-7--7-6-----------------------------------------------|
D|-----------------------------7---------------------9~----------------------|
A|-7--10p9-7--7-7-------------------7--10p9-7--7-7---7~----------------------|
E|---------------------------------------------------------------------------|

e|-12----12--------15-------14----14-----------------------------------------|
B|--13------13--------13-----15------15--------------------------------------|
G|---14--------14-------------16--------16-----------------------------------|
D|---------------------------------------------------------------------------|
A|---------------------------------------------------------------------------|
E|---------------------------------------------------------------------------|


4:52                 DRUMS FILL
e|----------------------|----------------------------------------------------|
B|----------------------|----------------------------------------------------|
G|----------------------|----------------------------------------------------|
D|-----------------5----|-----------------7-5--------------------------------|
A|--7p5---7p5---7-------|-----7p5---7p5--------------------------------------|
E|------7-----7---------|---------7-----7------------------------------------|


                     DRUMS FILL
e|----------------------|----------------------------------------------------|
B|----------------------|----------------------------------------------------|
G|----------------------|----------------------------------------------------|
D|-----------------5----|-----------------7-5--9-7--12-9---------------------|
A|--7p5---7p5---7-------|-----7p5---7p5--------------------------------------|
E|------7-----7---------|---------7-----7------------------------------------|


5:08
SOLOOOOOOOOOOOOO !!!


5:51
e|---------------------------------------------------------------------------|
B|---------------------------------------------------------------------------|
G|---------------------------------------------------------------------------|
D|-----------------5-----5---7-5---------------------------------------------|
A|--7p5---7p5---7-----7------------------------------------------------------|
E|------7-----7--------------------------------------------------------------|

e|---------------------------------------------------------------------------|
B|---------------------------------------------------------------------------|
G|---------------------------9-7---------------------------------------------|
D|-----------------5-----5---9-7---------------------------------------------|
A|--7p5---7p5---7-----7------------------------------------------------------|
E|------7-----7--------------------------------------------------------------|

e|---------------------------------------------------------------------------|
B|---------------------------------------------------------------------------|
G|---------------------------------------------------------------------------|
D|-----------------5-----5---7-5---------------------------------------------|
A|--7p5---7p5---7-----7------------------------------------------------------|
E|------7-----7--------------------------------------------------------------|

e|---------------------------------------------------------------------------|
B|---------------------------------------------------------------------------|
G|---------------------------9-7---------------------------------------------|
D|-----------------5-----5---9-7-----7~~-------------------------------------|
A|--7p5---7p5---7-----7--------------5~~-------------------------------------|
E|------7-----7----------------------0---------------------------------------|


6:12
e|---------------------------------------------------------------------------|
B|---------------------------------------------------------------------------|
G|---------------------------------12~---------------------------------------|
D|-9-9--14p12----14~---9--14p12-----------9-9--14p12----14~--9--14p12--------|
A|-7-7--------14-------7--------14--------7-7--------14------7--------14-10--|
E|-0-0-----------------0------------------0-0----------------0---------------|

e|---------------------------------------------------------------------------|
B|---------------------------------------------------------------------------|
G|---------------------------------12~---------------------------------------|
D|-9-9--14p12----14~---9--14p12-----------9-9--14p12----14~--9--14p12--------|
A|-7-7--------14-------7--------14--------7-7--------14------7--------14-10--|
E|-0-0-----------------0------------------0-0----------------0---------------|


Keep on rocking this riff during the verse. (6:29)
e|------------------------------|--------------------------------------------|
B|------------------------------|--------------------------------------------|
G|------------------------------|--------------------------------------------|
D|-9-9-----------9-9--------7---|--------------------------------------------|
A|-7-7--7h9 9-9--7-7--7h9 9-----|--------------------------------------------|
E|-0-0-----------0-0------------|--------------------------------------------|


or you play this during the verse (volume down, less treble)
e|---------------------------------------------------------------------------|
B|---------------------------------------------------------------------------|
G|---------------------------------12~---------------------------------------|
D|-9-9--14p12----14~---9--14p12-----------9-9--14p12----14~--9--14p12--------|
A|-7-7--------14-------7--------14--------7-7--------14------7--------14-10--|
E|-0-0-----------------0------------------0-0----------------0---------------|



chorus (riff based on ???) 6:53
e|------------------------------------------------|--------------------------|
B|------------------------------------------------|--------------------------|
G|-------14----12---9-----------------------------|--------------------------|
D|-12----12----10---7-----------------------------|-7--11--9~~---------------|
A|-10---------------------------------------------|-5--9---7~~---------------|
E|------------------------------------------------|--------------------------|


OUTRO




************************************

| /   slide up
| \   slide down
| h   hammer-on
| p   pull-off
| ~   vibrato
| +   harmonic
| x   Mute note
| b   Bend
| pb  Pre-bend
| br  Bend release
| pbr Pre-bend release
| brb Bend release bend

************************************
Добавлено: 09.08.2013
Другие материалы по этой песне:
  • Аккорды и текст

Страница создана 09.08.2013
http://primanota.ru/motorpsycho/hell-part-i-iii-chords.htm
Привет, Гость.
Предлагаем пройти революционный курс по гитаре.
Подарок от PrimaNota.Ru, забирай!