PrimaNota.ru - самый крупный в мире бесплатный архив песенных текстов, аккордов, табулатур и нот


Motorhomes - Slow Down - аккорды и текст, видео

Регистрация Запомнить меня
Войти через:  Facebook Google Twitter Vk Yandex Mail.ru

Motorhomes - Slow Down - аккорды и текст, видео

Печатать
Просмотров: 80
Уроки эстрадного вокала в Санкт-Петербурге
Slow Down
Motorhomes
The Motorhomes - Slow Down



Standard tuning

Play all chords with an open high e-string, sounds better.


    B7         Dsus2/F#

e|--0--|      e|--0--|
B|--0--|      B|--3--|
G|--2--|      G|--2--|
D|--1--|      D|--0--|
A|--2--|      A|-----|
E|-----|      E|--2--|



Intro:

Em
Em
Em
Em

Em Dsus2/F#  G
Bm           C
Em Dsus2/F#  G
Bm           C



Verse 1:

Em   Dsus2/F#  G
Look at your - self
Bm          C
Down at yourself
Em  Dsus2/F#     G
See through your head
Bm       C
Nobody's there
Em    Dsus2/F#  G
Don't be af  -  raid
Bm         C
Just look away
Em Dsus2/F# G
Loosen your strains
Bm        C
Come out again



Chorus:

C                    B7 *
You don't have to be strong anymore
G              Dsus2
You'll heal in time
Bm       C                  B7
Then you don't need to be afraid anymore
G             Dsus2  Em
Just you slow down



Verse 2:

Em  Dsus2/F# G
I'm not the  same
    Bm          C
The sky's going red
Em    Dsus2/F# G
Where are we   now
Bm       C
Over and out



Chorus:

C                    B7
You don't have to be strong anymore
G              Dsus2
You'll heal in time
Bm       C                  B7
Then you don't need to be afraid anymore
G             Dsus2
Just you slow down
Bm         C                    B7
Cause then you don't have to be strong anymore
G              Dsus2
You'll heal in time
Bm       C                  B7
Then you don't need to be afraid anymore
G             Dsus2
Just you slow down
Bm        C     B7
Why don't you?
G            Dsus2
Come on slow down
Bm        C    B7
Why don't you?
G            Dsus2
Come on slow down



Outro:

This 6 times:

e|-------------------------------------------------------------------------------------------|
B|-1---1---1---1---1-0-0---------0---0-----0-----0-------------------------------------------|
G|-0---0---0---0---0-0-0---------0---0---2---2---2---2---2---2---2---4---4-5-4---4---2---2---|
D|---------------------------------------2---2-------2---2---2---2---2---2-2-2---2---2---2---|
A|---3---3---3---3-------------2---2---2-------0---0---0---0---0---0---0-------0---0---0---0-|
E|-----------------------3-2-0---------------------------------------------------------------|


e|---------------------------------------------|
B|---------------------------------------------|
G|-2---2---2---2--2-2-2-0-0---0-0--0-0-0---0-0-|
D|-2---2---2---2--2-2-2-2-2---2-2--0-0-0---0-0-|
A|---2---2---2---------------------2-2-2---2-2-|
E|---------------------------------3-3-3---3-3-|


Then this once:

e|-------------------------------------------------------------------------------------------|
B|-1---1---1---1---1-0-0---------0---0-----0-----0-------------------------------------------|
G|-0---0---0---0---0-0-0---------0---0---2---2---2---2---2---2---2---4---4-5-4---4---2---2---|
D|---------------------------------------2---2-------2---2---2---2---2---2-2-2---2---2---2---|
A|---3---3---3---3-------------2---2---2-------0---0---0---0---0---0---0-------0---0---0---0-|
E|-----------------------3-2-0---------------------------------------------------------------|


e|---------------------------------------|
B|------------------------------------1--|
G|-2---2---2---2---2-0-0---0----0-----0--|
D|-2---2---2---2---2-2-2---2----0-----2--|
A|---2---2---2---2--------------2-----3--|
E|-----------------------0---0--3--3-----|


The outro isn't totally correct but..

Great song!
Добавлено: 26.10.2015
Другие материалы по этой песне:
  • Аккорды и текст

Страница создана 26.10.2015
http://primanota.ru/motorhomes/slow-down-chords.htm
Привет, Гость.
Предлагаем пройти революционный курс по гитаре.
Подарок от PrimaNota.Ru, забирай!