PrimaNota.ru - самый крупный в мире бесплатный архив песенных текстов, аккордов, табулатур и нот


Motorhomes - Psalm - аккорды и текст, видео

Регистрация Запомнить меня
Войти через:  Facebook Google Twitter Vk Yandex Mail.ru

Motorhomes - Psalm - аккорды и текст, видео

Печатать
Просмотров: 137
Psalm
Motorhomes
Intro:

F#m   E   A   D   A
F#m   E   A   D   A
E     A   A   D   A
D     E   F#m


Verse 1:

F#m  E      A   D   A  F#m  E  A   D            A
I    danced all winter so   summer came as a surprise
E   A    D               A    D            E         F#m
Terrible thing that I've done tracing your steps too long
F#m  E       A   D  A   F#m E       A D                A
I    laughed all summer I   laughed until I dropped my guard
E   A    D                A    D          E       F#m
Terrible things that I've said hating you all too much,
D          E      F#m
loving you all too much

Chorus:

A                      E            F#m                    D   E     A
Oh I wish I could be like you, so I asked you how and then you said: no,
                        E                 F#m               D              E
no you don't want to be like me, so don't try to be, I hope you won't turn in to me


F#m   E   A   D   A
D     E


Verse 2:
F#m  E    A D A   F#m  E     A  D             A
It   took October I    think it took November too
E    A      D          A    D            E    F#m
Then all it took was a push and I turned into you
D               E    F#m
Oh no, i turned into you.


Chorus (2 times):

A                      E            F#m                    D   E     A
Oh I wish I could be like you, so I asked you how and then you said: no,
                         E                F#m               D              E
no you don't want to be like me, so don't try to be, I hope you won't turn in to me


Outro, 2 times (something like this):

e|-------------------------------------------------------------------------------------|
B|-------------------------------------------------------------------------------------|
G|--9---9---9--7-6-6----6-7-7-7--7--------------------676---7--------7------------7-6--|
D|----------------------7-7-7-7--7-7-7-7--7-9--9--9------97----7---7----7---7---7------|
A|---------------------------------9-9-9--9-10-10-10-------------8--------8---8--------|
E|-------------------------------------------------------------------------------------|

e|-------------------------------------------------------------------------------------|
B|--------------------------------------------------------------------------------10---|
G|--9---9---9--7-6-6----6-7-7-7--7--------------------676---7--------7--------7--------|
D|----------------------7-7-7-7--7-7-7-7--7-9--9--9------97----7---7----7---7---7------|
A|---------------------------------9-9-9--9-10-10-10-------------8--------8------------|
E|-------------------------------------------------------------------------------------|





Добавлено: 24.06.2015
Другие материалы по этой песне:
  • Аккорды и текст

Страница создана 24.06.2015
http://primanota.ru/motorhomes/psalm-chords.htm
Привет, Гость.
Предлагаем пройти революционный курс по гитаре.
Подарок от PrimaNota.Ru, забирай!