PrimaNota.ru - самый крупный в мире бесплатный архив песенных текстов, аккордов, табулатур и нот


Motorhomes - Pictures At Sea - таба, видео

Регистрация Запомнить меня
Войти через:  Facebook Google Twitter Vk Yandex Mail.ru

Motorhomes - Pictures At Sea - таба, видео

Печатать
Просмотров: 127
this is my first tab so i dont really know if i did it right. i could only figure out 
very first part so if anybody has the rest of it or any corrections could they email me?

E -------------------------------------------------------------------|
A --0---------------0----------------9-------------9-------------7-0-|
D -------------------------------------------------------------------|
G ----9--9---9---------9---9---9-------9---9---9------9----9---------|
B ------9--9-------------9---9-----------9---9----------9------------|
E -------------------------------------------------------------------|

E----------------------------------------------------------------------|
A------------0------------9-------------9------------7-----------------|
D----------------------------------------------------------------------|
G-9---9---9----9---9---9-----9---9---9------9-----9--------------------|
B---9---9--------9---9---------9---9-----------9-----------------------|
E----------------------------------------------------------------------|

E--10-----------------------10------------------7--------------------|
A--------------------------------------------------------------------|
D--------------------------------------------------------------------|
G-----9------9------9----------9-----9-----9---------9----9----9-----|
B--------10----10----------------10-----10-------------7-----7-------|
E--------------------------------------------------------------------|

E-------------------------------------------------------------------|
A-7---------9--------------9------------------9---------------------|
D-------------------------------------------------------------------|
G---9----------9---9---9------9----9----9-------9----9----9---------|
B-----10-9-------9---9----------9-----9-----------9-----9-----------|
E-------------------------------------------------------------------|

E------------------------------------------------------------------|
A--9-----------7---------------------------------------------------|
D------------------------------------------------------------------|
G----9-----9-------------------------------------------------------|
B------9-----------------------------------------------------------|
E------------------------------------------------------------------|
Добавлено: 09.05.2012
Другие материалы по этой песне:
  • Аккорды и текст

Страница создана 09.05.2012
http://primanota.ru/motorhomes/pictures-at-sea-chords.htm
Привет, Гость.
Предлагаем пройти революционный курс по гитаре.
Подарок от PrimaNota.Ru, забирай!