PrimaNota.ru - самый крупный в мире бесплатный архив песенных текстов, аккордов, табулатур и нот


Motorhomes - The Man - таба, видео

Регистрация Запомнить меня
Войти через:  Facebook Google Twitter Vk Yandex Mail.ru

Motorhomes - The Man - таба, видео

Печатать
Просмотров: 158
-------------------------------------------------------------------------------
                             The Man - The Motorhomes
-------------------------------------------------------------------------------
Tabbed by: plasmareagan


Tuning: standard



Intro:

This riff played 3 times:

e|---------------------------------------------------------|
B|-8-8-8-8--3--3--3-3-3-2-2-2--8-8-8-8--3--3--3-3-3-2-2-2--|
G|-7-7-7-7--2--2--2-2-2-2-2-2--7-7-7-7--2--2--2-2-2-2-2-2--|
D|-0-0-0-0--0--0--0-0-0-0-0-0--0-0-0-0--0--0--0-0-0-0-0-0--|
A|---------------------------------------------------------|
E|---------------------------------------------------------|

e|-------------------------------------------------------------|
B|-10-10-10-10---------------------2-2-2-2---------------------|
G|-11-11-11-11--4--4-4-4-4--2-2-2--2-2-2-2--4--4-4-4-4--2-2-2--|
D|-0--0--0--0---0--0-0-0-0--0-0-0--0-0-0-0--0--0-0-0-0--0-0-0--|
A|-------------------------------------------------------------|
E|-------------------------------------------------------------|




Verse 1:


   I'm getting tired           with the commotion
e|---------------------------------------------------------|
B|-8-8-8-8--3--3--3-3-3-2-2-2--8-8-8-8--3--3--3-3-3-2-2-2--|
G|-7-7-7-7--2--2--2-2-2-2-2-2--7-7-7-7--2--2--2-2-2-2-2-2--|
D|-0-0-0-0--0--0--0-0-0-0-0-0--0-0-0-0--0--0--0-0-0-0-0-0--|
A|---------------------------------------------------------|
E|---------------------------------------------------------|

   You keep on talking             but nothing happens
e|-------------------------------------------------------------|
B|-10-10-10-10---------------------2-2-2-2---------------------|
G|-11-11-11-11--4--4-4-4-4--2-2-2--2-2-2-2--4--4-4-4-4--2-2-2--|
D|-0--0--0--0---0--0-0-0-0--0-0-0--0-0-0-0--0--0-0-0-0--0-0-0--|
A|-------------------------------------------------------------|
E|-------------------------------------------------------------|

   You've got big plans        for your brilliant future
e|---------------------------------------------------------|
B|-8-8-8-8--3--3--3-3-3-2-2-2--8-8-8-8--3--3--3-3-3-2-2-2--|
G|-7-7-7-7--2--2--2-2-2-2-2-2--7-7-7-7--2--2--2-2-2-2-2-2--|
D|-0-0-0-0--0--0--0-0-0-0-0-0--0-0-0-0--0--0--0-0-0-0-0-0--|
A|---------------------------------------------------------|
E|---------------------------------------------------------|

   Where streets are gold paved    and you're the man
e|-------------------------------------------------------------|
B|-10-10-10-10---------------------2-2-2-2---------------------|
G|-11-11-11-11--4--4-4-4-4--2-2-2--2-2-2-2--4--4-4-4-4--2-2-2--|
D|-0--0--0--0---0--0-0-0-0--0-0-0--0-0-0-0--0--0-0-0-0--0-0-0--|
A|-------------------------------------------------------------|
E|-------------------------------------------------------------|

The Man
(play tab below 4 times)
e|-------------------|
B|-------------------|
G|-------------------|
D|-4----5-4--2--4-5--|
A|-------------------|
E|-------------------|



Chorus:


   You're the man with the plan it's a brilliant scam
e|----------------------------|
B|-8-8-8-8--3--3--3-3-3-2-2-2-|
G|-7-7-7-7--2--2--2-2-2-2-2-2-|
D|-0-0-0-0--0--0--0-0-0-0-0-0-|
A|----------------------------|
E|----------------------------|

   You're the king in the ring what a terrible thing
e|----------------------------|
B|-8-8-8-8--3--3--3-3-3-2-2-2-|
G|-7-7-7-7--2--2--2-2-2-2-2-2-|
D|-0-0-0-0--0--0--0-0-0-0-0-0-|
A|----------------------------|
E|----------------------------|

   It's a shame that your game didn't work on the kids
e|--------------------------------|
B|-10-10-10-10--------------------|
G|-11-11-11-11--4--4-4-4-4--2-2-2-|
D|-0--0--0--0---0--0-0-0-0--0-0-0-|
A|--------------------------------|
E|--------------------------------|

   Sing it out everyone we won't do what people say
e|----------------------------|
B|-2-2-2-2--------------------|
G|-2-2-2-2--4--4-4-4-4--2-2-2-|
D|-0-0-0-0--0--0-0-0-0--0-0-0-|
A|----------------------------|
E|----------------------------|



Then guitar 2 plays this with intro riff:

e|-10-10-10-10-10-10-10----------------10-10-10-10-10-10-10-----------------|
B|-10-10-10-10-10-10-10----------------10-10-10-10-10-10-10-----------------|
G|--------------------------------------------------------------------------|
D|-----------------------0-0-0-0-0-0-0-----------------------0-0-0-0-0-0-0--|
A|-----------------------2-2-2-2-0-0-0-----------------------2-2-2-2-0-0-0--|
E|--------------------------------------------------------------------------|

e|-10-10-10---------10-10-10----------------------------------------|
B|-10-10-10---------10-10-10--------7-5-7-5-7-5-7-5-7-5-7-5-7-5-3-3-|
G|------------------------------------------------------------------|
D|-----------0-0-0------------0-0-0---------------------------------|
A|-----------2-2-2------------2-2-2---------------------------------|
E|------------------------------------------------------------------|




Verse 2 (no guitar during first two lines but then intro riff once):


   You had it worked out, oh what a workout
   You had us singing as you were saying:

   This is the future,         this is your future!
e|---------------------------------------------------------|
B|-8-8-8-8--3--3--3-3-3-2-2-2--8-8-8-8--3--3--3-3-3-2-2-2--|
G|-7-7-7-7--2--2--2-2-2-2-2-2--7-7-7-7--2--2--2-2-2-2-2-2--|
D|-0-0-0-0--0--0--0-0-0-0-0-0--0-0-0-0--0--0--0-0-0-0-0-0--|
A|---------------------------------------------------------|
E|---------------------------------------------------------|

   And we applaud as               you hit the gold paved 
e|-------------------------------------------------------------|
B|-10-10-10-10---------------------2-2-2-2---------------------|
G|-11-11-11-11--4--4-4-4-4--2-2-2--2-2-2-2--4--4-4-4-4--2-2-2--|
D|-0--0--0--0---0--0-0-0-0--0-0-0--0-0-0-0--0--0-0-0-0--0-0-0--|
A|-------------------------------------------------------------|
E|-------------------------------------------------------------|

cement
(play tab below 4 times)
e|-------------------|
B|-------------------|
G|-------------------|
D|-4----5-4--2--4-5--|
A|-------------------|
E|-------------------|



Chorus:


   You're the man with the plan it's a brilliant scam
e|----------------------------|
B|-8-8-8-8--3--3--3-3-3-2-2-2-|
G|-7-7-7-7--2--2--2-2-2-2-2-2-|
D|-0-0-0-0--0--0--0-0-0-0-0-0-|
A|----------------------------|
E|----------------------------|

   You're the king in the ring what a terrible thing
e|----------------------------|
B|-8-8-8-8--3--3--3-3-3-2-2-2-|
G|-7-7-7-7--2--2--2-2-2-2-2-2-|
D|-0-0-0-0--0--0--0-0-0-0-0-0-|
A|----------------------------|
E|----------------------------|

   It's a shame that your game didn't work on the kids
e|--------------------------------|
B|-10-10-10-10--------------------|
G|-11-11-11-11--4--4-4-4-4--2-2-2-|
D|-0--0--0--0---0--0-0-0-0--0-0-0-|
A|--------------------------------|
E|--------------------------------|

   Sing it out everyone we won't do what they say
e|----------------------------|
B|-2-2-2-2--------------------|
G|-2-2-2-2--4--4-4-4-4--2-2-2-|
D|-0-0-0-0--0--0-0-0-0--0-0-0-|
A|----------------------------|
E|----------------------------|

   You're the man with the plan it's a brilliant scam
e|----------------------------|
B|-8-8-8-8--3--3--3-3-3-2-2-2-|
G|-7-7-7-7--2--2--2-2-2-2-2-2-|
D|-0-0-0-0--0--0--0-0-0-0-0-0-|
A|----------------------------|
E|----------------------------|

   You're the king in the ring what a terrible thing
e|----------------------------|
B|-8-8-8-8--3--3--3-3-3-2-2-2-|
G|-7-7-7-7--2--2--2-2-2-2-2-2-|
D|-0-0-0-0--0--0--0-0-0-0-0-0-|
A|----------------------------|
E|----------------------------|

   It's a shame that your game didn't work on the kids
e|--------------------------------|
B|-10-10-10-10--------------------|
G|-11-11-11-11--4--4-4-4-4--2-2-2-|
D|-0--0--0--0---0--0-0-0-0--0-0-0-|
A|--------------------------------|
E|--------------------------------|

   Sing it out everyone we won't do what people say
e|----------------------------|
B|-2-2-2-2--------------------|
G|-2-2-2-2--4--4-4-4-4--2-2-2-|
D|-0-0-0-0--0--0-0-0-0--0-0-0-|
A|----------------------------|
E|----------------------------|



Then the intro riff 5 times:

e|---------------------------------------------------------|
B|-8-8-8-8--3--3--3-3-3-2-2-2--8-8-8-8--3--3--3-3-3-2-2-2--|
G|-7-7-7-7--2--2--2-2-2-2-2-2--7-7-7-7--2--2--2-2-2-2-2-2--|
D|-0-0-0-0--0--0--0-0-0-0-0-0--0-0-0-0--0--0--0-0-0-0-0-0--|
A|---------------------------------------------------------|
E|---------------------------------------------------------|

e|-------------------------------------------------------------|
B|-10-10-10-10---------------------2-2-2-2---------------------|
G|-11-11-11-11--4--4-4-4-4--2-2-2--2-2-2-2--4--4-4-4-4--2-2-2--|
D|-0--0--0--0---0--0-0-0-0--0-0-0--0-0-0-0--0--0-0-0-0--0-0-0--|
A|-------------------------------------------------------------|
E|-------------------------------------------------------------|



Then the song ends with this:
e|-------|
B|-8-8-8-|
G|-7-7-7-|
D|-0-0-0-|
A|-------|
E|-------|




Here are the lyrics:

I'm getting tired with the commotion
You keep on talking but nothing happens
You've got big plans for your brilliant future
Where streets are gold paved and you're the man
The Man

You're the man with the plan it's a brilliant scam
You're the king in the ring what a terrible thing
It's a shame that your game didn't work on the kids
Sing it out everyone we won't do what people say

You had it worked out, oh what a workout
You had us singing as you were saying:
This is the future, this is your future!
And we applaud as you hit the gold paved cement

You're the man with the plan it's a brilliant scam
You're the king in the ring what a terrible thing
It's a shame that your game didn't work on the kids
Sing it out everyone we won't do what they say

You're the man with the plan it's a brilliant scam
You're the king in the ring what a terrible thing
It's a shame that your game didn't work on the kids
Sing it out everyone we won't do what people say



Добавлено: 30.07.2015
Другие материалы по этой песне:
  • Аккорды и текст

Страница создана 30.07.2015
http://primanota.ru/motorhomes/man-chords.htm
Привет, Гость.
Предлагаем пройти революционный курс по гитаре.
Подарок от PrimaNota.Ru, забирай!