PrimaNota.ru - самый крупный в мире бесплатный архив песенных текстов, аккордов, табулатур и нот


Motorhomes - Love - таба, видео

Регистрация Запомнить меня
Войти через:  Facebook Google Twitter Vk Yandex Mail.ru

Motorhomes - Love - таба, видео

Печатать
Просмотров: 138
-------------------------------------------------------------------------------
                             Love - Motorhomes
-------------------------------------------------------------------------------
Tabbed by: plasmareagan
E-mail: plasmareagan@hotmail.com

Tuning: Standard tuning except for B-string -> tune it half step up to C


Intro:


e|---------------------------------------------------|
C|-----0-----0-------0-----0-----0-----0-----0-----0-|
G|---0-----0-------0-----0-----0-----0-----0-----0---|
D|-2-----2-----2h3-----3-----5-----5-----7-----9-----|
A|---------------------------------------------------|
E|---------------------------------------------------|

e|---------------------------------------------------|
C|-----0-----0-------0-----0-----0-----0-----0-----0-|
G|---0-----0-------0-----0-----0-----0-----0-----0---|
D|-2-----2-----2h3-----3-----5-----5-----7-----9-----|
A|---------------------------------------------------|
E|---------------------------------------------------|

e|-------------0-------------------------------------|
C|------0------------0-----0-----0-----0-----0-----0-|
G|----0------0-----0-----0-----0-----0-----0-----0---|
D|-10-----12-----9-----3-----2-----2-----2-----3-----|
A|---------------------------------------------------|
E|---------------------------------------------------|

e|-------------0-------------------------|
C|------0------------0-----0-----0-------|
G|----0------0-----0-----0-----0---------|
D|-10-----12-----9-----3-----2-----2-0---|
A|-------------------------------------3-|
E|---------------------------------------|

e|-----------------------------------------------------------------|
C|-----------------------------------------------------------------|
G|-------0-------0-------0-------0-------0-------0-------0-------0-|
D|---0h2-----0h2-----0h2-----0h2-----0h2-----0h2-----0h2-----0h2---|
A|-3-------3-------3-------3-------3-------3-------3-------3-------|
E|-----------------------------------------------------------------|



Verse1:

  You could be mistaken, you could be wrong or be faking
e|-------------------------------------------------|
C|-----0-----0-----0-----0-----0-----0-----0-----0-|
G|---0-----0-----0-----0-----0-----0-----0-----0---|
D|-2-----2-----3-----3-----5-----5-----7-----9-----|
A|-------------------------------------------------|
E|-------------------------------------------------|

  When you look at me like that
e|-------------------------------------------------|
C|-----0-----0-----0-----0-----0-----0-----0-----0-|
G|---0-----0-----0-----0-----0-----0-----0-----0---|
D|-2-----2-----3-----3-----5-----5-----7-----9-----|
A|-------------------------------------------------|
E|-------------------------------------------------|

  Still I know your love can save me be good to me baby
e|-------------------------------------------------|
C|-----0-----0-----0-----0-----0-----0-----0-----0-|
G|---0-----0-----0-----0-----0-----0-----0-----0---|
D|-2-----2-----3-----3-----5-----5-----7-----9-----|
A|-------------------------------------------------|
E|-------------------------------------------------|

  And I'll be good this time
e|-------------------------------------------------|
C|-----0-----0-----0-----0-----0-----0-----0-----0-|
G|---0-----0-----0-----0-----0-----0-----0-----0---|
D|-2-----2-----3-----3-----5-----5-----7-----9-----|
A|-------------------------------------------------|
E|-------------------------------------------------|


After that tab below:

e|-------------0--------------------------------------------------0-------------|
C|------0------------0-----0-----0-----0-----0-------------0------------0-----0-|
G|----0------0-----0-----0-----0-----0-----0--------0----0------0-----0-----0---|
D|-10-----12-----9-----3-----2-----2-----2-----2-h3---10-----12-----9-----3-----|
A|------------------------------------------------------------------------------|
E|------------------------------------------------------------------------------|




Chorus:

   Still I know your love can save me
e|-------------------------------------------------|
C|-----0-----0-----0-----0-----0-----0-----0-----0-|
G|---0-----0-----0-----0-----0-----0-----0-----0---|
D|-2-----2-----3-----3-----5-----5-----7-----9-----|
A|-------------------------------------------------|
E|-------------------------------------------------|

e|---------------------------------------------------------|
C|------0------0------0------0------0------0------0------0-|
G|----0------0------0------0------0------0------0------0---|
D|-10-----10-----10-----10-----10-----10-----10-----10-----|
A|---------------------------------------------------------|
E|---------------------------------------------------------|



Verse2:

 You could be an angel, the devil that's coming to take me
e|-------------------------------------------------|
C|-----0-----0-----0-----0-----0-----0-----0-----0-|
G|---0-----0-----0-----0-----0-----0-----0-----0---|
D|-2-----2-----3-----3-----5-----5-----7-----9-----|
A|-------------------------------------------------|
E|-------------------------------------------------|


 When you look at me like that
e|-------------------------------------------------|
C|-----0-----0-----0-----0-----0-----0-----0-----0-|
G|---0-----0-----0-----0-----0-----0-----0-----0---|
D|-2-----2-----3-----3-----5-----5-----7-----9-----|
A|-------------------------------------------------|
E|-------------------------------------------------|


 Oh won't you kiss me and hold me and tell me you love me
e|-------------------------------------------------|
C|-----0-----0-----0-----0-----0-----0-----0-----0-|
G|---0-----0-----0-----0-----0-----0-----0-----0---|
D|-2-----2-----3-----3-----5-----5-----7-----9-----|
A|-------------------------------------------------|
E|-------------------------------------------------|


 Oh I would sure like that
e|-------------------------------------------------|
C|-----0-----0-----0-----0-----0-----0-----0-----0-|
G|---0-----0-----0-----0-----0-----0-----0-----0---|
D|-2-----2-----3-----3-----5-----5-----7-----9-----|
A|-------------------------------------------------|
E|-------------------------------------------------|



After that tab below:

e|-------------0--------------------------------------------------0-------------|
C|------0------------0-----0-----0-----0-----0-------------0------------0-----0-|
G|----0------0-----0-----0-----0-----0-----0--------0----0------0-----0-----0---|
D|-10-----12-----9-----3-----2-----2-----2-----2-h3---10-----12-----9-----3-----|
A|------------------------------------------------------------------------------|
E|------------------------------------------------------------------------------|




Chorus:

 Still I know your love can save me
e|-------------------------------------------------|
C|-----0-----0-----0-----0-----0-----0-----0-----0-|
G|---0-----0-----0-----0-----0-----0-----0-----0---|
D|-2-----2-----3-----3-----5-----5-----7-----9-----|
A|-------------------------------------------------|
E|-------------------------------------------------|

e|-------------------------------------------------|
C|-----0-----0-----0-----0-----0-----0-----0-----0-|
G|---0-----4-----0-----4-----0-----4-----0-----4---|
D|-7-----5-----7-----5-----7-----5-----7-----5-----|
A|-------------------------------------------------|
E|-------------------------------------------------|



Solo part:

e|---------------------------------------------------------------------------------------------------------|
C|-------------------------------0-------0-------0---0-------0-----0---0-----0-----0-----0-----0-----0-----|
G|---4-0---4-0---4-0---4-0---0h2-----0h2-----0h2-------2---0-----0-------0-----0-----0-----0-----0-----0---|
D|-2-----2-----2-----2-----3-------3-------3-------3-----7-----7-----7-----7-----2-----2-----2-----2-------|
A|---------------------------------------------------------------------------------------------------------|
E|---------------------------------------------------------------------------------------------------------|

e|-------------------------------------------------------------------------------------------|
C|-------------------------------0-------0-------0---0-------0-----0---0-----0-----0-----0---|
G|---4-0---4-0---4-0---4-0---0h2-----0h2-----0h2-------2---0-----0-------0-----0-----0-----0-|
D|-2-----2-----2-----2-----3-------3-------3-------3-----7-----7-----7-----7-----2-----2-----|
A|-------------------------------------------------------------------------------------------|
E|-------------------------------------------------------------------------------------------|

Then this 20 times:

e|---------|
C|---------|
G|-------0-|
D|---0h2---|
A|-3-------|
E|---------|


After that next one 4 times:


Still I know your love can save me
e|-------------------------------------------------|
C|-----0-----0-----0-----0-----0-----0-----0-----0-|
G|---0-----0-----0-----0-----0-----0-----0-----0---|
D|-2-----2-----3-----3-----5-----5-----7-----9-----|
A|-------------------------------------------------|
E|-------------------------------------------------|

And finally, ends with this:

e|----|
C|-0--|
G|-9--|
D|-10-|
A|----|
E|----|


Great song, great band. Enjoy!


Here are the lyrics:

You could be mistaken
You could be wrong or be faking
When you look at me like that

Still I know your love can save me
Be good to me baby
And I'll be good this time

Still I know your love can save me

You could be an angel
The devil that's coming to take me
When you look at me like that

Oh won't you kiss me and hold me
And tell me you love me
Oh I would sure like that

Still I know your love can save me



************************************

| /   slide up
| \   slide down
| h   hammer-on
| p   pull-off
| ~   vibrato
| +   harmonic
| x   Mute note
| b   Bend
| pb  Pre-bend
| br  Bend release
| pbr Pre-bend release
| brb Bend release bend

************************************
Добавлено: 24.06.2015
Другие материалы по этой песне:
  • Аккорды и текст

Страница создана 24.06.2015
http://primanota.ru/motorhomes/love-chords.htm
Привет, Гость.
Предлагаем пройти революционный курс по гитаре.
Подарок от PrimaNota.Ru, забирай!