PrimaNota.ru - самый крупный в мире бесплатный архив песенных текстов, аккордов, табулатур и нот


Motorhomes - Long Distance Runners - аккорды и текст, видео

Регистрация Запомнить меня
Войти через:  Facebook Google Twitter Vk Yandex Mail.ru

Motorhomes - Long Distance Runners - аккорды и текст, видео

Печатать
Просмотров: 177
Long Distance Runners
Motorhomes
The Motorhomes - Long Distance Runners

Standard tuning



Intro:

  This 8 times:       Then this:
e|-------------|    |-------------------------------------------|
B|-------------|    |-------------------------------------------|
G|--/12-9----9-|    |-12b14r12b14r12b14r12b14r12b14r12b14r12-14-|
D|--------12---|    |-------------------------------------------|
A|-------------|    |-------------------------------------------|
E|-------------|    |-------------------------------------------|

Then this 10 times:   Then this 2 times:
e|-------------|    |-------------------------------------------|
B|-------------|    |-------------------------------------------|
G|--/12-9----9-|    |-12b14r12b14r12b14r12b14r12b14r12b14r12-14-|
D|--------12---|    |-------------------------------------------|
A|-------------|    |-------------------------------------------|
E|-------------|    |-------------------------------------------|

This intro chord progression is played with above tabs:

A5   A5   A5   A5
A5   A5   A5   A5
F         Am
G         F
Am        C
F         Am
G         F



Verse 1:

Am                       
Don't think we don't care much
C
It's a mistake
F
Time is on our side
Am
Don't let it die now
G
We'll make it somehow
F
It's a mistake
Am
Time is on our side
C
Don't let it die now
F
We'll make it somehow
Am
Don't think we don't care much
G
Don't think we don't care much
F
Don't think we don't care much



Pre-chorus:

Am                       G
We are the long distance runners
F                    Am
We are the solitaire ones
G                            F
We are all alone when we are nothing
Am                        G      F
We are on our own when we fall



Chorus:

F              G                Am
If we run then you can run with us
     Em               F
Come on and run with us
      D5                 Am    G    F
If we run then run with us



Verse 2:

Am
Don't think we are asleep now
C
We never will
F
Don't you complain now
Am
It's not your problem
G
Because you don't listen
F
You never will
Am
Time is on our side
C
We'll make it somehow
F
Don't let it die now
Am
Don't think we are asleep now
G
Don't think we are asleep now
F
Don't think we are asleep now

Don't think we are asleep now



Then this riff before chorus:
e|-----------------------------------------------------------------|
B|-5-5-5-5-5-5-5-5-5-5-5-5-5-5-5-5-5-5-5-5-5-5-5-5-5-5-5-5-5-5-5-5-|
G|-2-2-2-2-4-4-4-4-5-5-5-5-7-7-7-7-2-2-2-2-4-4-4-4-5-5-5-5-7-7-7-7-|
D|-----------------------------------------------------------------|
A|-----------------------------------------------------------------|
E|-----------------------------------------------------------------|

e|-----------------------------------------------------------|
B|-5-5-5-5-5-5-5-5-5-5-5-5-5-5-5-5-5-5-5-5-5-5-5-5-5-5-5-5-5-|
G|-2-2-2-2-4-4-4-4-5-5-5-5-7-7-7-7-2-2-2-2-4-4-4-4-5-5-5-5-7-|
D|-----------------------------------------------------------|
A|-----------------------------------------------------------|
E|-----------------------------------------------------------|



Chorus:

F              G                Am
If we run then you can run with us
     Em               F
Come on and run with us
      D5                 Am
If we run then run with us

F              G                Am
If we run then you can run with us
     Em               F
Come on and run with us
      D5                 Am    G    F
If we run then run with us

D5   A5   A5   A5

Am  Asus2


Great song.
Добавлено: 24.06.2015
Другие материалы по этой песне:
  • Аккорды и текст

Страница создана 24.06.2015
http://primanota.ru/motorhomes/long-distance-runners-chords.htm
Привет, Гость.
Предлагаем пройти революционный курс по гитаре.
Подарок от PrimaNota.Ru, забирай!