PrimaNota.ru - самый крупный в мире бесплатный архив песенных текстов, аккордов, табулатур и нот


Motorhomes - Its Alright - аккорды и текст, видео

Регистрация Запомнить меня
Войти через:  Facebook Google Twitter Vk Yandex Mail.ru

Motorhomes - Its Alright - аккорды и текст, видео

Печатать
Просмотров: 146
Уроки эстрадного вокала в Санкт-Петербурге
Its Alright
Motorhomes
The Motorhomes - It's Alright


Standard tuning


Play all chords with an open high e-string. Sounds closer to (motor)home(s).


Intro (3 times):
                        C#m                          E
e|-----------------------------------------------------|
B|-10--10--10---9--7--9--5--------7--7--7---5--4--5--9-|
G|-----------------------------------------------------|
D|--7---7---7---6--4--6--2--------4--4--4---2--1--2--6-|
A|-----------------------------------------------------|
E|-----------------------------------------------------|



Verse 1:
E             G#m             A         C#m   C#sus2  C#m
Say something else, something new for a while
E         G#m           A   C#m       B     A
You do me good, keep my faith on your side



Chorus:

This is played over the chorus:
e|-----------------------------------------------------------------|
B|-----------------------------------------------------------------|
G|-----4-----4---------4-----4---------4-----4---------4-----4-----|
D|---2-----2-----2---2-----2-----2---2-----2-----2---2-----2-----2-|
A|-0-----0-----0---4-----4-----4-------------------0-----0-----0---|
E|---------------------------------4-----4-----4-------------------|

e|-----------------------------------------------------------------|
B|-----------------------------------------------------------------|
G|-----4-----4---------4-----4---------4-----4---------4-----4-----|
D|---2-----2-----2---2-----2-----2---2-----2-----2---2-----2-----2-|
A|-0-----0-----0---4-----4-----4---2-----2-----2---0-----0-----0---|
E|-----------------------------------------------------------------|

e|-----------------------------------------------------------------|
B|-----------------------------------------------------------------|
G|-----4-----4---------4-----4---------4-----4---------4-----4-----|
D|---2-----2-----2---2-----2-----2---2-----2-----2---2-----2-----2-|
A|-0-----0-----0---4-----4-----4-------------------0-----0-----0---|
E|---------------------------------4-----4-----4-------------------|

e|---------------------------------------------------|
B|---------------------------------------------------|
G|-----4-----4---------4-----4---------4-----4-------|
D|---2-----2-----2---2-----2-----2---2-----2-----2---|
A|-0-----0-----0---4-----4-----4---2-----2-----2---0-|
E|---------------------------------------------------|

       Asus2  C#m   G#m
It's alright
          A
You don't have to step aside
Asus2  C#m   B  A
It's alright
       Asus2 C#m   G#m
It's alright
            A
'cause I am not around this time
Asus2  C#m   B  A
It's alright



C#m    E    C#m    



Verse 2:

  E          G#m            A           C#m   C#sus2  C#m  
Today, not today you're the same what a shame
E             G#m        A   C#m    B    A
Help's on the way, so be cool go my way



Chorus:

       Asus2  C#m   G#m
It's alright
          A
You don't have to step aside
Asus2  C#m   B  A
It's alright
       Asus2 C#m   G#m
It's alright
            A
'cause I am not around this time
Asus2  C#m   B  A
It's alright



Outro:


4 times:

Asus2  C#m  G#m  A     
In     my   ab - sence 
Asus2  C#m  B  A
you    rule my world


12 times:

A   B   C#m   B

and the song ends with:

A


Really good song, enjoy!
Добавлено: 24.06.2015
Другие материалы по этой песне:
  • Аккорды и текст

Страница создана 24.06.2015
http://primanota.ru/motorhomes/its-alright-chords.htm
Привет, Гость.
Предлагаем пройти революционный курс по гитаре.
Подарок от PrimaNota.Ru, забирай!