PrimaNota.ru - самый крупный в мире бесплатный архив песенных текстов, аккордов, табулатур и нот


Motorhomes - I Wanna Make You Sing - аккорды и текст, видео

Регистрация Запомнить меня
Войти через:  Facebook Google Twitter Vk Yandex Mail.ru

Motorhomes - I Wanna Make You Sing - аккорды и текст, видео

Печатать
Просмотров: 120
I Wanna Make You Sing
Motorhomes
The Motorhomes - I Wanna Make You Sing


Standard tuning



Intro:

This 2 times:
e|---------------------------------------|
B|---------------------------------------|
G|-2--2--2-2--0--2--0--2--0-0-0-0-0-0-0--|
D|-2--2--2-2--2--2--2--2--0-0-0-0-0-0-0--|
A|---------------------------------------|
E|---------------------------------------|


Then this 2 times (tremolo picking):
            
e|-9---10---12--------14---12---10---9--9--10--9----|
B|-10--12---14--------15---14---12---10-10-12--10---|
G|--------------------------------------------------|
D|--------------------------------------------------|
A|--------------------------------------------------|
E|--------------------------------------------------|

Then this 1 time:
e|---------------------------------------|
B|---------------------------------------|
G|-2--2--2-2--0--2--0--2--0-0-0-0-0-0-0--|
D|-2--2--2-2--2--2--2--2--0-0-0-0-0-0-0--|
A|---------------------------------------|
E|---------------------------------------|



Verse 1:

A   G             D/F#
     I'm standing here
F       A
Next to you
G              D/F#
     Wondering if
F             A
This time I might pass
G                 D/F#   F           A
     As something else,    something more
G          D/F#
     Not a friend
F
I'm not your friend



Chorus:

A
I wanna make you sing
G
I'll tell you everything
D/F#
If I can make you sing
F           A
I'd give anything

Just to hear you sing
G
I wanna make you sing
D/F#             F
I wanna make you sing


Then this 2 times (tremolo picking):
            
e|-9---10---12--------14---12---10---9--9--10--9----|
B|-10--12---14--------15---14---12---10-10-12--10---|
G|--------------------------------------------------|
D|--------------------------------------------------|
A|--------------------------------------------------|
E|--------------------------------------------------|

Then this 1 time:
e|---------------------------------------|
B|---------------------------------------|
G|-2--2--2-2--0--2--0--2--0-0-0-0-0-0-0--|
D|-2--2--2-2--2--2--2--2--0-0-0-0-0-0-0--|
A|---------------------------------------|
E|---------------------------------------|


Verse 2:

A  G       D/F#
    I'm so sorry
F          A
I made you worry
G            D/F#
    I wasn't sane
  F           A
I acted like a mad man
G                D/F#
  But I couldn't stand
F             A
    Your proposition
G                  D/F#
    Let us just be friends
F
I'm not your friend



Chorus:

A
I wanna make you sing
G
I'll tell you everything
D/F#
If I can make you sing
F           A
I'd give anything

Just to hear you sing
G
I'll tell you everything
D/F#               F
I'll tell you everything

A
I wanna make you sing
G
I'll tell you everything
D/F#
If I can make you sing
F           A
I'd give anything

Just to hear you sing
G
I wanna make you sing
D/F#             F
I wanna make you sing


E            A            D/F#  E
        Well I'm not that luc - ky
    A          D/F#  E
I'm never that luc - ky




Then this (tremolo picking):
   A      G       D/F#      F      A      G        D/F#      F

e|--------------------------------------------------------------------|
B|-14---------------------------15-17-----17-b-18-r-17----------14-15-|
G|-14---------------------------16-18-----18-b-19-r-18----------14-16-|
D|--------------------------------------------------------------------|
A|--------------------------------------------------------------------|
E|--------------------------------------------------------------------|




Chorus:

A
I wanna make you sing
G
I'll tell you everything
D/F#
If I can make you sing
F           A
I'd give anything

Just to hear you sing
G
I'll tell you everything
D/F#               F
I'll tell you everything

A
I wanna make you sing
G
I'll tell you everything
D/F#
If I can make you sing
F           A
I'd give anything

Just to hear you sing
G
I wanna make you sing
D/F#             F
I wanna make you sing

A


Добавлено: 24.06.2015
Другие материалы по этой песне:
  • Аккорды и текст

Страница создана 24.06.2015
http://primanota.ru/motorhomes/i-wanna-make-you-sing-chords.htm
Привет, Гость.
Предлагаем пройти революционный курс по гитаре.
Подарок от PrimaNota.Ru, забирай!