PrimaNota.ru - самый крупный в мире бесплатный архив песенных текстов, аккордов, табулатур и нот


Motorhomes - For Whom It May Concern - таба, видео

Регистрация Запомнить меня
Войти через:  Facebook Google Twitter Vk Yandex Mail.ru

Motorhomes - For Whom It May Concern - таба, видео

Печатать
Просмотров: 242
Уроки эстрадного вокала в Санкт-Петербурге
-------------------------------------------------------------------------------
                             For Whom It May Concern - Motorhomes
-------------------------------------------------------------------------------
Tabbed by: plasmareagan

Tuning: Standard

e|-----------------------------------------------------------------|
B|-----------------------------------------------------------------|
G|-----0-------0-------0-------0-------0-------0-------0-------0---|
D|-------4-------4-------4-------4-------4-------4-------4-------4-|
A|-----------------3-3-----0-0---------------------3-3-----0-0-----|
E|-3-3-----3-3---------------------0-0-----0-0---------------------|

e|-----------------------------------------------------------------|
B|-----0-------0-------0-------0-------3-------3-------3-------3---|
G|-------2-------2-------2-------2-------0-------0-------0-------0-|
D|-----------------------------------------------------------------|
A|-----------------3-3-----0-0---------------------3-3-----0-0-----|
E|-3-3-----3-3---------------------0-0-----0-0---------------------|

e|-----------------------------------------------------------------|
B|-----------------------------------------------------------------|
G|-----0-------0-------0-------0-------0-------0-------0-------0---|
D|-------4-------4-------4-------4-------4-------4-------4-------4-|
A|-----------------3-3-----0-0---------------------3-3-----0-0-----|
E|-3-3-----3-3---------------------0-0-----0-0---------------------|

e|---------------------------------------------------------------------------------|
B|-----0-------0-------0-------0-------3-------3-------3-------3-------3-------3---|
G|-------2-------2-------2-------2-------0-------0-------0-------0-------0-------0-|
D|---------------------------------------------------------------------------------|
A|-----------------3-3-----0-0---------------------3-3-----3-3-----3-3-----3-3-----|
E|-3-3-----3-3---------------------0-0-----0-0-------------------------------------|

e|-----------------------------------------------------------------|
B|-----------------------------------------------------------------|
G|-----0-------0-------0-------0-------0-------0-------0-------0---|
D|-------4-------4-------4-------4-------4-------4-------4-------4-|
A|-----------------3-3-----0-0---------------------3-3-----0-0-----|
E|-3-3-----3-3---------------------0-0-----0-0---------------------|

e|-------------------------------------------------------------------------------------------------|
B|-----0-------0-------0-------0-------3-------3-------3-------3-------3-------3-------3-------3---|
G|-------2-------2-------2-------2-------0-------0-------0-------0-------0-------0-------0-------0-|
D|-------------------------------------------------------------------------------------------------|
A|-----------------3-3-----0-0---------------------3-3-----3-3-----3-3-----3-3-----3-3-----3-3-----|
E|-3-3-----3-3---------------------0-0-----0-0-----------------------------------------------------|


Verse 1 (tab on top is played during this):

Nowhere to hide, no words to speak
A silent scream is all I give
I want to hide, I want to speak
I want to show that all you see is me

Chorus:

Am7                C        Dsus2 
Standing here, I'm standing here 
          Em                         Dsus2
and the reflection you see is just a shadow
Am7                C    Dsus2        G
Standing here and all I am is what I always denied
      F                  B     Am7      Dus2
and I hope that you will understand my reason why

Then this right after chorus:
e|-----------------|
B|-----------------|
G|---------0-------|
D|-----4-----4---4-|
A|-------2-----2---|
E|-0-0-------------|

verse 2 (same kind of thing as in verse 1, listen to the song and you'll get the idea):

I played the reed with all I had
The one I fool is me

Chorus 2:

Am7                C        Dsus2
Standing here, I'm standing here
          Em                         Dsus2
and the reflection you see is just a shadow
Am7                C   Dsus2  G
Standing here and all I ever dreamed to be 
     F              B
is a shade of who I really
Am7           C        Dsus2
am I still am standing here
        Em                           Dsus2
and the reflection you see is just a shadow
Am7                C    Dsus2  G
Standing here and all I am is who I am
      F                  B     Am7      Dsus2
and I hope that you will understand my reasons why
Добавлено: 04.05.2015
Другие материалы по этой песне:
  • Аккорды и текст

Страница создана 04.05.2015
http://primanota.ru/motorhomes/for-whom-it-may-concern-chords.htm
Привет, Гость.
Предлагаем пройти революционный курс по гитаре.
Подарок от PrimaNota.Ru, забирай!