PrimaNota.ru - самый крупный в мире бесплатный архив песенных текстов, аккордов, табулатур и нот


Motorhomes - End Of The World - аккорды и текст, видео

Регистрация Запомнить меня
Войти через:  Facebook Google Twitter Vk Yandex Mail.ru

Motorhomes - End Of The World - аккорды и текст, видео

Печатать
Просмотров: 123
End Of The World
Motorhomes
               Em          G                  C
The end of the world was announced some time ago
                  Em           G                 C
But the closer it gets less it seems you want to know


|Em   |G    |C    |C    |
|Em   |G    |C    |C    |

Tab below is played 16 times during chord progression above:

|-------|
|-0-----|
|---2-0-|
|-------|
|-------|
|-------|

               Em             G                C
The end of the world was that all, all I could get
            Em              G                C
I wasted my time, feel no remorse, have no regrets


Em                      Cm   
Leave me here where I belong
A#                                   D
All heroes are gone, stayed here too long
Em                       Cm
Leave me here, I'm on my own
A#                               D
With the greatest pain I've ever known


|Em   |G    |C    |C    |
|Em   |G    |C    |C    |

Tab below is played 16 times during chord progression above:

|-------|
|-0-----|
|---2-0-|
|-------|
|-------|
|-------|

              Em          G                C 
A second hand man with no plan, nothing to do

|-15-15-------14-------12-------10-------|
|-------17-------15-------13-------12----|
|----------16-------16-------12-------12-|
|----------------------------------------|
|----------------------------------------|
|----------------------------------------|

                 Em             G                      C
I've gone out of style, have no chance to keep up with you


Em                      Cm
Leave me here where I belong
A#                                   D
All heroes are gone, stayed here too long
Em                       Cm
Leave me here, I'm on my own
A#                               D
With the greatest pain I've ever known

|F#m   |A    |D    |D    |
|F#m   |A    |D    |D    |

Guitar solo below is played during chord progression above:


|----------------------------------------------------------------------------------------------|
|----2--3-----2--------2----2--------------------2--3-----2--------2----2----------------------|
|-2--------2-------2-4---------4--2--2--------2--------2-------2-4---------4--2--2----4-2------|
|-----------------------------------------------------------------------------------------4----|
|----------------------------------------------------------------------------------------------|
|----------------------------------------------------------------------------------------------|



F#m                     Dm
Leave me here where I belong
C                                 E
All heroes are gone, I stayed too long
F#m                      Dm
Leave me here, I'm on my own
C                                E
With the greatest pain I've ever known


|F#m   |A    |D    |D    |
|F#m   |A    |D    |D    |
|F#m   |A    |D    |D    |
|F#m   |A    |D    |D    |
|F#m   |A    |D    |D    |
|F#m   |A    |Dsus2      |
Добавлено: 24.06.2015
Другие материалы по этой песне:
  • Аккорды и текст

Страница создана 24.06.2015
http://primanota.ru/motorhomes/end-of-world-chords.htm
Привет, Гость.
Предлагаем пройти революционный курс по гитаре.
Подарок от PrimaNota.Ru, забирай!