PrimaNota.ru - самый крупный в мире бесплатный архив песенных текстов, аккордов, табулатур и нот


Motorhead - The Chase Is Better Then The Catch - таба, видео

Регистрация Запомнить меня
Войти через:  Facebook Google Twitter Vk Yandex Mail.ru

Motorhead - The Chase Is Better Then The Catch - таба, видео

Печатать
Просмотров: 98
Song name: The Chase Is Better Then the Catch
Band: Motorhead
Album: Ace of Spades
Transcribed by MikiMixx. mikimixx@serbianna.com

Notes: Tune down half way. Blast distortion, amp.
       Preferably use a Fender for the dry sound.


Main riff
e|------------------------------------------------------|
B|------------------------------------------------------|
G|---------------------------------7--------------------|
D|--9------------55-7--9-----------5-7-5-7--------------|
A|--7------------33-5--7-------------5-3-5--------------|
E|----0-0-0-0-0----------0-0-0-0-0----------------------|

Rythm: Play during singing
e|------------------------------------------------------|
B|------------------------------------------------------|
G|-------9-7-------9-7----------------------------------|
D|-9-----7-5-9-----7-5-9-----5-7------------------------|
A|-7---------7---------7-----3-5------------------------|
E|-0-0-0-----0-0-0-----0-0-0----------------------------|

Chorus: Part of song that leads back into main riff
e|------------------------------------------------------|
B|------------------------------------------------------|
G|--2------------2--------------------------------------|
D|--2------------2--------------------------------------|
A|--0--0-5-3-0---0-0-5-3-0----3-555-3-2-----------------|
E|----------------------------1-333-1-0-----------------|
     
Добавлено: 02.10.2013
Другие материалы по этой песне:
  • Аккорды и текст

Страница создана 12.08.2013
http://primanota.ru/motorhead/the-chase-is-better-then-the-catch-chords.htm
Привет, Гость.
Предлагаем пройти революционный курс по гитаре.
Подарок от PrimaNota.Ru, забирай!