PrimaNota.ru - самый крупный в мире бесплатный архив песенных текстов, аккордов, табулатур и нот


Motorhead - Love Me Like A Reptile - текст песни, таба, бас-таба, видео

Регистрация Запомнить меня
Войти через:  Facebook Google Twitter Vk Yandex Mail.ru

Motorhead - Love Me Like A Reptile - текст песни, таба, бас-таба, видео

Печатать
Просмотров: 206
Авторы: Eddie Clarke, Phil Taylor, Lemmy Kilmister

Motörhead-"Love Me Like A Reptile"
tabbed by guillermo luppi(lordaborto@mixmail.com)

Tune down half a step to Eb.

Intro (8 times)
e|--------------------|
B|--------------------|
G|-2-2----------------|
D|-2-2----------------|
A|-0-0---0---0-2------|
E|---------3-----3-0--|
                   .

verse (2 times)
e|---------------------------------------------|
B|---------------------------------------------|
G|---------------------------------------------|
D|2-2-2-2-2-2-2-2-2-2-2-2-2-2-2-2--------------|
A|0-0-0-0-0-0-0-0-0-0-0-0-0-0-0-0--0---0-2-----|
E|-----------------------------------3-----3-0-|

Pre-chorus
1st bar                 Other 3 bars
e|--------------------|--------------------|
B|--------------------|--------------------|
G|-------9-9-11-12-11-|-9-9---9-9-11-12-11-|
D|-2-2---9-9-11-12-11-|-9-9---9-9-11-12-11-|
A|-2-2----------------|-7-7----------------|
E|-0-0----------------|-0-0----------------|

Chorus 
e|------------------------------------|
B|------------------------------------|
G|-5--5----5-5-5-5----5--5----5-5-5-5-|
D|-5--5----5-5-5-5----5--5----5-5-5-5-|
A|-3--3----3-3-3-3----3--3----3-3-3-3-|
E|------------------------------------|

Intro riff (4 times)
Verse (2 times)
Pre-chorus (4 times)
Chorus
Intro riff (4 times)

rhythm for first solo (4 times)
e|---------------------------------|
B|---------------------------------|
G|---------------------------------|
D|-2-2-2-2-2-2-2-2-2-2-2-2-2-2-----|
A|-0-0-0-0-0-0-0-0-0-0-0-0-0-0-----|
E|-----------------------------3-3-|
   . . . . . . . . . . . . . .

Bridge after first solo (2 times)
e|---------------------------------|
B|---------------------------------|
G|-5-5-5-5-7-7-7-7-5-5-5-5-3-3-3-3-|
D|---------------------------------|
A|-3-3-3-3-5-5-5-5-3-3-3-3-1-1-1-1-|
E|---------------------------------|
   tremolo picking

Intro riff (4 times)
Verse (2 times)
Pre chorus (4 times)
Chorus
Intro riff (4 times)

Beginning of 2nd solo
e|-------------------------------------------------------------|
B|-15~------13-15-12~----12~-----------------5--5--5--5--------|
G|------------------------------5-------5~---7^-7^-7^-7^-etc.--|
D|------------------------------5-7-5-7------------------------|
A|-------------------------------------------------------------|
E|-------------------------------------------------------------|

2nd Solo Backing (Bass, possibly guitar joins in part way through)
G|-------------------------------------|
D|-------------------------------------|
A|-------------------------------------|
E|-3/5-5-5--5-5-5555-3/5-5-5--5-5-3333-|

Ending (repeat until fade-out)
e|--------------------------------|
B|--------------------------------|
G|9-9-9-9-9-9-9-9-7-7-7-6-6-6-7-7-|
D|7-7-7-7-7-7-7-7-5-5-5-4-4-4-5-5-|
A|--------------------------------|
E|--------------------------------|
Добавлено: 10.04.2012
Другие материалы по этой песне:

Страница создана 14.03.2012
http://primanota.ru/motorhead/love-me-like-a-reptile-chords.htm
Привет, Гость.
Предлагаем пройти революционный курс по гитаре.
Подарок от PrimaNota.Ru, забирай!