PrimaNota.ru - самый крупный в мире бесплатный архив песенных текстов, аккордов, табулатур и нот


Motorhead - Limb From Limb - аккорды и текст, таба, видео

Регистрация Запомнить меня
Войти через:  Facebook Google Twitter Vk Yandex Mail.ru

Motorhead - Limb From Limb - аккорды и текст, таба, видео

Печатать
Просмотров: 209
Limb From Limb
Motorhead
Intro
E|------------------------------|
B|------------------------------|
G|------------------------------|
D|------------------------------|
A|-----7--7-------5-------------|
E|-0-0------5h--7----5h-7p-5p-3-|
 
vers riff

repeat
E|-------------------------------|
B|-------------------------------|
G|-------------------------------|
D|-------------------------------|
A|--7-7-9-9---7-7-9-9------5---5-|
E|--5-5-5-5---5-5-5-5------3---3-|

E|------------------------------|
B|------------------------------|
G|------------------------------|
D|------------------------------|
A|-----7--7-------5-------------|
E|-0-0------5h--7----5h-7p-5p-3-|

Chorus
E|-------------------------------------------------|
B|-------------------------------------------------|
G|-------------------------------------------------|
D|-------------------------------------------------|
A|--7-7--9-9---7-7--9-9-----9-9-11-11--7---------5-|
E|--5-5--5-5---5-5--5-5-----7-7--7--7--5-/19\7---3-|

E|------------------------------|
B|------------------------------|
G|------------------------------|
D|------------------------------|
A|-----7--7-------5-------------|
E|-0-0------5h--7----5h-7p-5p-3-|

Pre Interlude
E|-----------|
B|-----------|
G|7-7---7\-9-|
D|5-5---5\-7-|
A|-----------|
E|-----------|
(Drum fill)
"OH!!"
Interlude Double Time:(played on bass only)
G|--------------------------------------------------------------------------|
D|-------------------5------------------------------------------------5--h7-|
A|-5-7-7-7-7-7-7-7-7---7--5-7-7-7-7-7-7-7-------5--h7---------5--h7---------|
E|-----------------------------------------------------5--h7----------------|

repeat
E|--------------------------------------------------------|
B|--------------------------------------------------------|
G|--------------------------------------------------------|
D|--------------------------------------------------------|
A|--7-7-7-7---9-9-9-9-9---------7-7-7-7---9-9-9-9--x5-x-5-|
E|--5-5-5-5---5-5-5-5-5---------5-5-5-5---5-5-5-5--x3-x-3-|

E|------------------------------------|
B|------------------------------------|
G|------------------------------------|
D|------------------------------------|
A|-2--2-2-2-2--------2---------2------|
E|-0--0-0-0-0-----3--0-----3---0----3-|

------------------------------------------------------------|
------------------------------------------------------------|
------------------------------------------------------------|
------------------------------------------------------------|
9-9-9-9-9-9-9-9-11-11-11-11-11-11-11-11---7------5--------5-|
7-7-7-7-7-7-7-7--7-7-7-7-7--7---7-7--7----5/19/7-3--------3-|

E|--------------------------------------------|
B|--------------------------------------------|
G|--------------------------------------------|
D|--------------------------------------------|
A|-2--2-2-2-2--------2---------2-------2------|
E|-0--0-0-0-0-----3--0-----3---0----3--0----3-|

solo #2 (lemmy)
x8
E|-----12-12-|
B|-----12-12-|
G|-15--------|
D|-----------|
A|-----------|
E|-----------|

E|---------------------------------|
B|-15^-12-15^-12-15-12-15-12-15-12-|
G|---------------------------------|
D|---------------------------------|
A|---------------------------------|
E|---------------------------------|

x??
E|-----------------------------------------|
B|-12-15-17---12-15-17--12-15-17--12-15-17-|
G|-----------------------------------------|
D|-----------------------------------------|
A|-----------------------------------------|
E|-----------------------------------------|
x3
E|------------|-----------------------|--------------------------|
B|--12---12---|-14^-14--12-14--12-----|-14-12--14-12--14--12^^^^-|
G|--12---12---|-14^-14--12-14--12-12--|-14-12--14-12--14--12^^^^-|
D|14---14-----|-------------------14--|--------------------------|
A|14---14-----|-----------------------|--------------------------|
E|------------|-----------------------|--------------------------|

E|-----------------------------------------|
B|-----------------------------------------|
G|-14-12----12-----------------------------|
D|-------14-----14-13-12---------12-13-14--|
A|------------------------14h-15-----------|
E|-----------------------------------------|

E|----------------------------------------------|
B|----------------------------------------------|
G|-12-14-15^-14-12-14-12----14-------12-14--15^-|
D|-----------------------------12--14-----------|
A|----------------------------------------------|
E|----------------------------------------------|

Solo # 3 (Most Of It)

"yeah! yeah! yeah! yeah! oww!"
X??
E|---------|
B|---12-12-|
G|---12-12-|
D|14-------|
A|---------|
E|---------|

E|-12--12--12--12--12--12--12--12--|
B|-15^-15^-15^-15^-15^-15^-15^-15^-|
G|---------------------------------|
D|---------------------------------|
A|---------------------------------|
E|---------------------------------|

X8 x8
E|12--12h-15p-12------|-------------------|
B|--------------h15---|12--12h-15p-12-----|
G|--------------------|---------------h15-|
D|--------------------|-------------------|
A|--------------------|-------------------|
E|--------------------|-------------------|
x?? x8
E|--------------------|--12^-|
B|14^-14-12------12---|------|
G|14^-14-12-14---12-14|14^---|
D|----------14------14|------|
A|--------------------|------|
E|--------------------|------|

x8 "Dont stop now!!!"
E|----------------------|
B|-14^--14--12--14-12---|
G|-14^--14--12--14-12-14|
D|--------------------14|
A|----------------------|
E|----------------------|

E|-------------------------------------------------------------|
B|-14-14-14-14-14-14-14-14-----14-----14----16^--16--14-----14-|
G|-14-14-14-14-14-14-14-14--16-14--16-14----16^--16--14-16--14-|
D|--------------------------16-----16-------------------16-----|
A|-------------------------------------------------------------|
E|-------------------------------------------------------------|
________________________________________________________________
|___________________|Lyrics|_____________________________________|
| |
|Well I've never done nothing,that ever gonna shame my life, |
|come on around any time you like, honey, |
|there aint no shame in my bed at night. |
| |
|----------------------------------------------------------------|
| |
|Long legged lovers,I'm gonna tear ya limb from limb, |
|Get you smashed as a rat in some bar, |
|sink my claws into your velvet skin |
| |
|----------------------------------------------------------------|
| |
|Harsh, cure words baby, there gonna cut me like a knife, |
|I dont care what the hell you call me, |
|but are ya stil "commin around tonight?
Добавлено: 03.05.2014
Другие материалы по этой песне:
  • Аккорды и текст

Страница создана 17.03.2012
http://primanota.ru/motorhead/limb-from-limb-chords.htm
Привет, Гость.
Предлагаем пройти революционный курс по гитаре.
Подарок от PrimaNota.Ru, забирай!