PrimaNota.ru - самый крупный в мире бесплатный архив песенных текстов, аккордов, табулатур и нот


Motorhead - Jailbait - аккорды и текст, таба, видео

Регистрация Запомнить меня
Войти через:  Facebook Google Twitter Vk Yandex Mail.ru

Motorhead - Jailbait - аккорды и текст, таба, видео

Печатать
Просмотров: 263
Авторы: Eddie Clarke, Phil Taylor, Lemmy Kilmister

Jailbait
Motorhead
Tune down to Eb.
 
Intro (with verse in background)
1|----------------------------|
2|----------------------------|
3|----3----5----3-------------|
4|----3----5----3-----3-5-3---|
5|----------------3-5-------5-|
6|-333--333--333--------------|

Verse
1|---------------------|
2|---------------------|
3|----3----5----3---55-|
4|----3----5----3---55-|
5|---------------------|
6|-333--333--333--33---|

Chorus
1|---------------------------------------|
2|---------------------------------------|
3|---------------------------------------|
4|---------------------------------------|
5|-9-9-7-9--9-9-7-99-77-7-77-7-77-7-77-7-|
6|-7-7-5-7--7-7-5-77-55-5-55-5-55-5-55-5-|

1|-------------------------------------------------------|
2|-------------------------------------------------------|
3|-------------------------------------------------------|
4|-1010-10-1010-10-1010-10-1010-10-99-9-99-9-99-9--------|
5|--8-8--8--8-8--8--8-8--8--8-8--8-77-7-77-7-77-7---575--|
6|------------------------------------------------57---7-|

Bridge (x7) Fill
1|-----------|------------|---------------------|
2|-----------|------------|---------------------|
3|-----------|------------|---------------------|
4|-------5---|-5-7^-7-5-7-|-2nd block of chorus-|
5|-577777-7~-|------------|---------------------|
6|-----------|------------|---------------------|

Coda
1|--------------------------------------------|
2|--------------------------------------------|
3|-11-11-9-11--11-11-9-1111-99-9-99-9-99-9-99-|
4|--9--9-7--9---9--9-7--9-9-77-7-77-7-77-7-77-|
5|--------------------------------------------|
6|--------------------------------------------|

1|------------------------------------------------|
2|------------------------------------------------|
3|------------------------------------------------|
4|-1010-10-1010-10-1010-10-1010-10-99-9-99-9-99-9-|
5|--8-8--8--8-8--8--8-8--8--8-8--8-77-7-77-7-77-7-|
6|------------------------------------------------|

1|-------------------------------------------------5-----------------|
2|-------------------------------------------------5-----------------|
3|-------------------------------------------------5-----------------|
4|-------------------------------------------------7tremolo pick--7\-|
5|---575---575---575---575-----5-7-5-------5-7-5---7--------------7\-|
6|-57---757---757---757---75-7-------7-5-7-------7-5--------------5\-|
Добавлено: 28.05.2014
Другие материалы по этой песне:

Страница создана 01.03.2012
http://primanota.ru/motorhead/jailbait-chords.htm
Привет, Гость.
Предлагаем пройти революционный курс по гитаре.
Подарок от PrimaNota.Ru, забирай!