PrimaNota.ru - самый крупный в мире бесплатный архив песенных текстов, аккордов, табулатур и нот


Motorhead - Iron Fist - аккорды и текст, таба, бас-таба, видео

Регистрация Запомнить меня
Войти через:  Facebook Google Twitter Vk Yandex Mail.ru

Motorhead - Iron Fist - аккорды и текст, таба, бас-таба, видео

Печатать
Просмотров: 448
Авторы: Eddie Clarke, Phil Taylor, Lemmy Kilmister

Iron Fist
Motorhead
solo 1
eb|------------------------------------|
Bb|------------------------------------|
Gb|--7--9-9-9-9-9-9--7--9-9-9-9-9-9--7-|
Db|------------------------------------|
Ab|------------------------------------|
Eb|------------------------------------|

Eb|----------------------------------------------------|
Bb|--------------------8-------------------------------|
Gb|-9-9-9-9-9-9-9-9-9----9-7h9--7-9-9-9-9-9-9--7-9-9-9-|
Db|----------------------------------------------------|
Ab|----------------------------------------------------|
Eb|----------------------------------------------------|

Eb|-------------------------------------------------|
Bb|------------------------8-10-10b--10b-10b-10p8---|
Gb|-9-9-9--7--9-9-9-9-9-9-------------------------9-|
Db|-------------------------------------------------|
Ab|-------------------------------------------------|
Eb|-------------------------------------------------|

Eb|------------------------------------------|
Bb|--8---------------------------------------|
Gb|-----9--9p7---7~~~-9b--9b--9p7---7-9-9b-9-|
Db|------------9------------------9----------|
Ab|------------------------------------------|
Eb|------------------------------------------|

eb|-------------------------------------|
Bb|-------------------------------------|
Gb|-7---7-------------------------------|
Db|---9---9--7---7----------------------|
Ab|------------9---9--7----7------------|
Eb|----------------------9---9--7--5--2-|

Eb|---------------------------------------------------|
Bb|-10b-10b-10b~~~--10bp8---8~~----12b-12b-12b--12-12-|
Gb|-12b-12b-12b~~~--------9--------14b-14b-14b--------|
Db|---------------------------------------------------|
Ab|---------------------------------------------------|
Eb|---------------------------------------------------|

Eb|--------------------------------------------------------------------------|
Bb|---------------------10b-10b-10b~~~--10bp8---8~~---10b-10b-10b--8-8-------|
Gb|-14--12-14--12~~~~---12b-12b-12b~~~--------9-------------------------7~~~-|
Db|--------------------------------------------------------------------------|
Ab|--------------------------------------------------------------------------|
Eb|--------------------------------------------------------------------------|

eb|-------------------------------------------------------|
Bb|-------------------------------------------------------|
Gb|--7--9-9-9-9-9-9--7--9-9-9-9-9-9--7--9-9-9-9-9-9-9-9-9-|
Db|-------------------------------------------------------|
Ab|-------------------------------------------------------|
Eb|-------------------------------------------------------|

Eb|---------------------------------|
Bb|-8-------------------------------|
Gb|-7-9-7h9--7-9-9-9-9-9-9--7-9-9-9-|
Db|---------------------------------|
Ab|---------------------------------|
Eb|---------------------------------|

Eb|---------------|
Bb|---------------|
Gb|-9-9-9---------|
Db|---------9-----|
Ab|---------7-8-7-|
Eb|-----------6-5-|

solo 2
Eb|-------------------------------------|
Bb|-------------------------------------|
Gb|---9b--9p7---7------9b---9b--9p7---7-|
Db|----------9----------------------9---|
Ab|-------------------------------------|
Eb|-------------------------------------|

eb|----------------------------------------------------|
Bb|--10b-10b-10b~~~--10bp8---8~~----12b-12b-12b--12-12-|
Gb|--12b-12b-12b~~~--------9--------14b-14b-14b--------|
Db|----------------------------------------------------|
Ab|----------------------------------------------------|
Eb|----------------------------------------------------|

Eb|--------------------------------------------------------------------------|
Bb|---------------------10b-10b-10b~~~--10bp8---8~~---10b-10b-10b--8-8-------|
Gb|-14--12-14--12~~~~---12b-12b-12b~~~--------9-------------------------7~~~-|
Db|--------------------------------------------------------------------------|
Ab|--------------------------------------------------------------------------|
Eb|--------------------------------------------------------------------------|
Добавлено: 20.12.2013
Другие материалы по этой песне:

Страница создана 23.03.2012
http://primanota.ru/motorhead/iron-fist-chords.htm
Привет, Гость.
Предлагаем пройти революционный курс по гитаре.
Подарок от PrimaNota.Ru, забирай!