PrimaNota.ru - самый крупный в мире бесплатный архив песенных текстов, аккордов, табулатур и нот


Motorhead - In Another Time - аккорды и текст, таба, видео

Регистрация Запомнить меня
Войти через:  Facebook Google Twitter Vk Yandex Mail.ru

Motorhead - In Another Time - аккорды и текст, таба, видео

Печатать
Просмотров: 168
In Another Time
Motorhead
Intro
1|--------------------|------------------------|
2|--------------------|------------------------|
3|---------------5-7--|---------------7--------|
4|---------------5-7--|---------------5-7-5-7--|
5|-5-7-7-7-7-7-7------|-5-7-7-7-7-7-7---5-3-5--|
6|-0---0-0-0-0-0------|-0---0-0-0-0-0----------|
 

Riff 1
1|----------------------------|------------------------------|
2|----------------------------|------------------------------|
3|---------------5-7----------|---------------7--------------|
4|---------------5-7----------|---------------5---7---5---7--|
5|-5-7-7-7-7-7-7--------------|-5-7-7-7-7-7-7-----5---3---5--|
6|-0---0-0-0-0-0--------------|-0---0-0-0-0-0----------------|

Verse (x2)
1|------------------------------------------------------|
2|------------------------------------------------------|
3|--------12-14\-------12-14\-------12-14---------------|
4|--------12-14\-------12-14\-------12-14---------------|
5|----------------------------------------10-12---------|
6|-0-0-0-0------0-0-0-0------0-0-0-0-------8-10---------|

Play riff 1 between every verse and chorus.

Chorus
1|---------------------------|---------------------------|
2|---------------------------|---------------------------|
3|---------------------------|---------------------------|
4|-2-2-4-4-2-2-4-2-2-4-2-2-4-|-2-2-4-4-2-2-4-2-2-4-2-2-4-|
5|-0-0-0-0-0-0-0-0-0-0-0-0-0-|-0-0-0-0-0-0-0-0-0-0-0-0-0-|
6|---------------------------|---------------------------|

1|-------------------------------|-------------------------------|
2|-------------------------------|-------------------------------|
3|-------------------------------|-------------------------------|
4|-10-----10---------12-12-12-12-|-10-----10---------12-12-12-12-|
5|--8------8---------10-10-10-10-|--8------8---------10-10-10-10-|
6|-------------------------------|-------------------------------|

Play riff 1 between every chorus and ensuing verse.
1st Solo backing:
Riff 1 (x1)
Verse riff (x2)
Riff 1 (x1)

Beginning of 2nd guitar solo
1|----------------------|--------------------------|-------------------|
2|-15-15----15-15-12----|--------------------------|-------------------|
3|-------------------14-|-12----12-----------------|-------------------|
4|----------------------|----14------14^(16)-(14)~-|-12----------------|
5|----------------------|--------------------------|----14-12\10-------|
6|----------------------|--------------------------|-------------12----|

| 6 times |
1|---------------------------------------------------|---------|---------------|
2|------------------------------------------------15-|-15------|---------------|
3|------------------------------------5---5-7--14----|-14^(16)-|-14-12---------|
4|---------5-----------------5-7-7777---7------------|---------|-------14-/-\--|
5|--7-7777---7---------3-5/7-------------------------|---------|---------------|
6|---------------5^(6)-------------------------------|---------|---------------|

Backing for 2nd solo is riff 1 until the outro
outro is just E5(0799000)
Добавлено: 10.12.2013
Другие материалы по этой песне:
  • Аккорды и текст

Страница создана 23.02.2012
http://primanota.ru/motorhead/in-another-time-chords.htm
Привет, Гость.
Предлагаем пройти революционный курс по гитаре.
Подарок от PrimaNota.Ru, забирай!