PrimaNota.ru - самый крупный в мире бесплатный архив песенных текстов, аккордов, табулатур и нот


Motorhead - Ill Be Your Sister - аккорды и текст, таба, бас-таба, видео

Регистрация Запомнить меня
Войти через:  Facebook Google Twitter Vk Yandex Mail.ru

Motorhead - Ill Be Your Sister - аккорды и текст, таба, бас-таба, видео

Печатать
Просмотров: 207
Ill Be Your Sister
Motorhead
eb|-----------------------|
Bb|---5----7-5--5-7p5-----|
Gb|---5-5--7-5--5-7p5-----|
Db|---------------------7-|
Ab|-----------------------|
Eb|-----------------------|

eb|---------------------------------------|
Bb|-------------------5----7-5--5-7p5-----|
Gb|-------------------5-5--7-5--5-7p5-----|
Db|------7------7-----------------------7-|
Ab|-0-0----0-0-----0----------------------|
Eb|---------------------------------------|

eb|----0---------------------------|
Bb|----0---------------------------|
Gb|--------------------------------|
Db|-2----2-2-2--3--3--3-3-3--3-3-3-|
Ab|-2----2-2-2--3--3--3-3-3--3-3-3-|
Eb|-0----0-0-0--1--1--1-1-1--1-1-1-|

Eb|-------------|
Bb|-------------|
Gb|-------------|
Db|--5-5-5-5-5--|
Ab|--5-5-5-5-5--|
Eb|--3-3-3-3-3--|

eb|---------------------------------------|
Bb|-------------------5----7-5--5-7p5-----|
Gb|-------------------5-5--7-5--5-7p5-----|
Db|------7------7-----------------------7-|
Ab|-0-0----0-0-----0----------------------|
Eb|---------------------------------------|

eb|----0---------------------------|
Bb|----0---------------------------|
Gb|--------------------------------|
Db|-2----2-2-2--3--3--3-3-3--3-3-3-|
Ab|-2----2-2-2--3--3--3-3-3--3-3-3-|
Eb|-0----0-0-0--1--1--1-1-1--1-1-1-|

eb|-------------|
Bb|-------------|
Gb|-------------|
Db|--5-5-5-5-5--|
Ab|--5-5-5-5-5--|
Eb|--3-3-3-3-3--|

eb|---------------------------------------|
Bb|-------------------5----7-5--5-7p5-----|
Gb|-------------------5-5--7-5--5-7p5-----|
Db|------7------7-----------------------7-|
Ab|-0-0----0-0-----0----------------------|
Eb|---------------------------------------|

solo
eb|---------------------------------------------------|
Bb|---------------------------------------------------|
Gb|-7b-7b--7b-7b--7b-7b--7b--7b-7b-7b-7b--7b--7b-7b---|
Db|---------------------------------------------------|
Ab|---------------------------------------------------|
Eb|---------------------------------------------------|

Eb|----------------------------------------|
Bb|-10p8---8-10p8---8-10-8----------5--7-5-|
Gb|------9--------9--------9-7--5-7-5--7-5-|
Db|----------------------------------------|
Ab|----------------------------------------|
Eb|----------------------------------------|
repeat repeat

eb|---------------------------------------------------------*-|
Bb|---5-7p5-----7p5----5---------5-7-7b-7b-5-7--5--5-7-5----*-|
Gb|---5-7p5-----7p5----5-7p5-----5-7-7b-7b-5-7--5--5-7-5----*-|
Db|-7-------7--------7---------7-------------------------7--*-|
Ab|---------------------------------------------------------*-|
Eb|---------------------------------------------------------*-|

Eb|----------------*-------------|
Bb|----5----5----5-*-8p5---8p5---|
Gb|--/6--/6---/6---*-----6-----6-|
Db|----------------*-------------|
Ab|----------------*-------------|
Eb|----------------*-------------|

repeat repeat
eb|-------*--------------------------------------------*----------*--------|
Bb|-8b\---*--14bp12----12-----12-14-14b----------12~~~-*----------*--------|
Gb|-------*--14bp12----12-----12-14-14bp12-12-14-12~~~-*-14p12----*-14b~~~-|
Db|-------*---------14-----14--------------------------*-------14-*--------|
Ab|-------*--------------------------------------------*----------*--------|
Eb|-------*--------------------------------------------*----------*--------|

eb|---------------------------------------|
Bb|-------------------5----7-5--5-7p5-----|
Gb|-------------------5-5--7-5--5-7p5-----|
Db|------7------7-----------------------7-|
Ab|-0-0----0-0-----0----------------------|
Eb|---------------------------------------|

eb|----0---------------------------|
Bb|----0---------------------------|
Gb|--------------------------------|
Db|-2----2-2-2--3--3--3-3-3--3-3-3-|
Ab|-2----2-2-2--3--3--3-3-3--3-3-3-|
Eb|-0----0-0-0--1--1--1-1-1--1-1-1-|

Eb|-------------|
Bb|-------------|
Gb|-------------|
Db|--5-5-5-5-5--|
Ab|--5-5-5-5-5--|
Eb|--3-3-3-3-3--|

eb|---------------------------------------|
Bb|-------------------5----7-5--5-7p5-----|
Gb|-------------------5-5--7-5--5-7p5-----|
Db|------7------7-----------------------7-|
Ab|-0-0----0-0-----0----------------------|
Eb|---------------------------------------|

solo 2 --------------------- repeat
Eb|------------------------/----15----15----15----*-|
Bb|-------16bp13------15bf/--15----15----15----15-*-|
Gb|-14-17--------14-------------------------------*-|
Db|-----------------------------------------------*-|
Ab|-----------------------------------------------*-|
Eb|-----------------------------------------------*-|

Eb|-------------------*----------------------|
Bb|-15b-15b-15bp13----*----------------------|
Gb|----------------14-*-14---7b-7b--7bp5---5-|
Db|-------------------*------------------7---|
Ab|-------------------*----------------------|
Eb|-------------------*----------------------|

eb|----------------------------------------------------|
Bb|------------------------12----------------12--------|
Gb|---5-7b-5---------12-14----14-12----12-14----14-12--|
Db|-7--------7----14----------------14-----------------|
Ab|----------------------------------------------------|
Eb|----------------------------------------------------|

Eb|------------------------------|
Bb|----------12------------------|
Gb|----12-14----14-12-----12-14b-|
Db|-14----------------14---------|
Ab|------------------------------|
Eb|------------------------------|
Добавлено: 19.04.2014
Другие материалы по этой песне:
  • Аккорды и текст

Страница создана 02.04.2012
http://primanota.ru/motorhead/ill-be-your-sister-chords.htm
Привет, Гость.
Предлагаем пройти революционный курс по гитаре.
Подарок от PrimaNota.Ru, забирай!