PrimaNota.ru - самый крупный в мире бесплатный архив песенных текстов, аккордов, табулатур и нот


Motorhead - Going To Mexico - бас-таба, видео

Регистрация Запомнить меня
Войти через:  Facebook Google Twitter Vk Yandex Mail.ru

Motorhead - Going To Mexico - бас-таба, видео

Печатать
Просмотров: 266
Уроки эстрадного вокала в Санкт-Петербурге
Artist: Motorhead
Title: Going to Mexico
Album: Aftershock
Year: 2013
Eb Ab Db Gb

Riff 1 (two ways, anyway repeat the riff...)
|----------------------------------|
|----------------------------------|  (like Phil)
|----------------------------------|
|-0-00-00-000-000--0-00-00-000-000-|
                                         
|-----------------------------------|
|-----------------------------------| (like Lemmy)
|-----------------------------------|
|-0-0-0-0-0-0-0-0-0-0-0-0-0-0-0-0-0-|

Riff 2
|-----------------------------------------------------------------|
|-----------------------------------------------------------------|
|-3-3-3-3-3-3-3-3-2-2-2-2-2-2-2-2-----------------2-2-2-2-2-2-2-2-|
|---------------------------------3-3-3-3-3-3-3-3-----------------|

Riff 3 (chorus)
|-------------------------------------------------------------------|
|-------------------------------------------------------------------|
|-5-5-5-5---------3-3-3-3---------5-5-5-5----------3--3--0--3--3--0-|
|---------3-3-3-3---------1-1-1-1---------3-3-3-3-------------------|

|----------------------------------------------------------------------------------------|
|----------------------------------------------------------------------------------------|
|-5-5-5-5---------3-3-3-3---------5-5-5-5----------3--3--0--3--3--0--3--3--0--3--3--0--3-|
|---------3-3-3-3---------1-1-1-1---------3-3-3-3----------------------------------------|

Riff 4 (solo rhytm)
|----------------------------------------------------------------------|
|----------------------------------------------------------------------|
|-----5----------5---------5---------5---------5---------5--------5----|
|-0------5--0-------5--7------5--0------5--7------5--0------5--7-----5-|

|--------------------------------------------------------------------|
|--------------------------------------------------------------------|
|--------------------------------------------------------------------|
|-0-00-00-000-000--0-00-00-000-000--0-00-00-000-000--0-00-00-000-000-|

Easy, comment and rate.
Добавлено: 11.09.2013
Другие материалы по этой песне:
  • Аккорды и текст

Страница создана 11.09.2013
http://primanota.ru/motorhead/going-to-mexico-chords.htm
Привет, Гость.
Предлагаем пройти революционный курс по гитаре.
Подарок от PrimaNota.Ru, забирай!