PrimaNota.ru - самый крупный в мире бесплатный архив песенных текстов, аккордов, табулатур и нот


Motorama - Corona - бас-таба, видео

Регистрация Запомнить меня
Войти через:  Facebook Google Twitter Vk Yandex Mail.ru

Motorama - Corona - бас-таба, видео

Печатать
Просмотров: 181
-------------------------------------------------------------------------------
                             CORONA - MOTORAMA
-------------------------------------------------------------------------------
Tabbed by: BranxBass
E-mail: brandon_magadan.o@hotmail.com

A very easy song, Only 5 chords, always going the same...

(0:11)

G|-----------------------------------------------------------|
D|--------7-7-7-7-7-7-7-7-7-7-7-7-7-7-7-7-7-7-7--------------|
A|-----------------------------------------------------------| 
E|-----------------------------------------------------------|

(0:23)

G|------------------------------------------------------------|
D|----------3---------------------------3---------------------|
A|------5-------3-3-3----8-7--------5-----3-3-3----8-7--------| 
E|------------------------------------------------------------|



Variation 1

G|-----------------------------------------------------------|
D|---------3----------------------------3--------------------|
A|------5-----3-3-3/----8-7---------5-----3-3-3----8-8-7-----| 
E|-----------------------------------------------------------|

Variation 2

G|-------------------------------------------------------------|
D|----------3-3--------------------------3-3-------------------|
A|------5-5-----3-3-3/----8-7-------5-5-------3-3-3----8-8-7---| 
E|-------------------------------------------------------------|




| /  slide up
| \  slide down
| h  hammer-on
| p  pull-off
| ~  vibrato
| +  harmonic
| x  Mute note
===============================================================================
Добавлено: 24.05.2016
Вам также может быть интересно:
Другие материалы по этой песне:
  • Аккорды и текст

Страница создана 24.05.2016
http://primanota.ru/motorama/corona-chords.htm
Привет, Гость.
Предлагаем пройти революционный курс по гитаре.
Подарок от PrimaNota.Ru, забирай!